ISO-10303-21;
HEADER;
/* Generated by software containing ST-Developer
 * from STEP Tools, Inc. (www.steptools.com) 
 */
/* OPTION: using custom renumber hook */

FILE_DESCRIPTION(
/* description */ ('STEP AP242',
'CAx-IF Rec.Pracs.---Representation and Presentation of Product Manufa
cturing Information (PMI)---4.0---2014-10-13',
'CAx-IF Rec.Pracs.---3D Tessellated Geometry---0.4---2014-09-14','2;1'),

/* implementation_level */ '2;1');

FILE_NAME(
/* name */ '6267fd0d12b2a1558426645c',
/* time_stamp */ '2022-04-26T14:09:17+00:00',
/* author */ (''),
/* organization */ (''),
/* preprocessor_version */ 'ST-DEVELOPER v18.101',
/* originating_system */ '  ',
/* authorisation */ '  ');

FILE_SCHEMA (('AP242_MANAGED_MODEL_BASED_3D_ENGINEERING_MIM_LF { 1 0 10303 442 1 1 4 }'));
ENDSEC;

DATA;
#10=SHAPE_REPRESENTATION_RELATIONSHIP('','',#349,#11);
#11=ADVANCED_BREP_SHAPE_REPRESENTATION('',(#347),#591);
#12=CIRCLE('',#353,0.001524);
#13=CIRCLE('',#354,0.001524);
#14=CIRCLE('',#356,0.008128);
#15=CIRCLE('',#357,0.008128);
#16=CIRCLE('',#359,0.00152400000000002);
#17=CIRCLE('',#360,0.00152400000000002);
#18=CIRCLE('',#363,0.001524);
#19=CIRCLE('',#364,0.001524);
#20=CIRCLE('',#367,0.001524);
#21=CIRCLE('',#368,0.001524);
#22=CIRCLE('',#371,0.001524);
#23=CIRCLE('',#372,0.001524);
#24=CIRCLE('',#375,0.001524);
#25=CIRCLE('',#376,0.001524);
#26=CIRCLE('',#379,0.001524);
#27=CIRCLE('',#380,0.001524);
#28=CIRCLE('',#383,0.001524);
#29=CIRCLE('',#384,0.001524);
#30=CYLINDRICAL_SURFACE('',#352,0.001524);
#31=CYLINDRICAL_SURFACE('',#355,0.008128);
#32=CYLINDRICAL_SURFACE('',#358,0.00152400000000002);
#33=CYLINDRICAL_SURFACE('',#362,0.001524);
#34=CYLINDRICAL_SURFACE('',#366,0.001524);
#35=CYLINDRICAL_SURFACE('',#370,0.001524);
#36=CYLINDRICAL_SURFACE('',#374,0.001524);
#37=CYLINDRICAL_SURFACE('',#378,0.001524);
#38=CYLINDRICAL_SURFACE('',#382,0.001524);
#39=ORIENTED_EDGE('',*,*,#135,.F.);
#40=ORIENTED_EDGE('',*,*,#136,.F.);
#41=ORIENTED_EDGE('',*,*,#137,.T.);
#42=ORIENTED_EDGE('',*,*,#138,.T.);
#43=ORIENTED_EDGE('',*,*,#139,.T.);
#44=ORIENTED_EDGE('',*,*,#140,.F.);
#45=ORIENTED_EDGE('',*,*,#141,.F.);
#46=ORIENTED_EDGE('',*,*,#136,.T.);
#47=ORIENTED_EDGE('',*,*,#142,.F.);
#48=ORIENTED_EDGE('',*,*,#143,.F.);
#49=ORIENTED_EDGE('',*,*,#144,.T.);
#50=ORIENTED_EDGE('',*,*,#140,.T.);
#51=ORIENTED_EDGE('',*,*,#145,.T.);
#52=ORIENTED_EDGE('',*,*,#146,.F.);
#53=ORIENTED_EDGE('',*,*,#147,.F.);
#54=ORIENTED_EDGE('',*,*,#143,.T.);
#55=ORIENTED_EDGE('',*,*,#148,.T.);
#56=ORIENTED_EDGE('',*,*,#149,.F.);
#57=ORIENTED_EDGE('',*,*,#150,.F.);
#58=ORIENTED_EDGE('',*,*,#146,.T.);
#59=ORIENTED_EDGE('',*,*,#151,.T.);
#60=ORIENTED_EDGE('',*,*,#152,.F.);
#61=ORIENTED_EDGE('',*,*,#153,.F.);
#62=ORIENTED_EDGE('',*,*,#149,.T.);
#63=ORIENTED_EDGE('',*,*,#154,.T.);
#64=ORIENTED_EDGE('',*,*,#155,.F.);
#65=ORIENTED_EDGE('',*,*,#156,.F.);
#66=ORIENTED_EDGE('',*,*,#152,.T.);
#67=ORIENTED_EDGE('',*,*,#157,.T.);
#68=ORIENTED_EDGE('',*,*,#158,.F.);
#69=ORIENTED_EDGE('',*,*,#159,.F.);
#70=ORIENTED_EDGE('',*,*,#155,.T.);
#71=ORIENTED_EDGE('',*,*,#160,.F.);
#72=ORIENTED_EDGE('',*,*,#161,.F.);
#73=ORIENTED_EDGE('',*,*,#162,.T.);
#74=ORIENTED_EDGE('',*,*,#158,.T.);
#75=ORIENTED_EDGE('',*,*,#163,.T.);
#76=ORIENTED_EDGE('',*,*,#164,.F.);
#77=ORIENTED_EDGE('',*,*,#165,.F.);
#78=ORIENTED_EDGE('',*,*,#161,.T.);
#79=ORIENTED_EDGE('',*,*,#166,.F.);
#80=ORIENTED_EDGE('',*,*,#167,.F.);
#81=ORIENTED_EDGE('',*,*,#168,.T.);
#82=ORIENTED_EDGE('',*,*,#164,.T.);
#83=ORIENTED_EDGE('',*,*,#169,.T.);
#84=ORIENTED_EDGE('',*,*,#170,.F.);
#85=ORIENTED_EDGE('',*,*,#171,.F.);
#86=ORIENTED_EDGE('',*,*,#167,.T.);
#87=ORIENTED_EDGE('',*,*,#172,.T.);
#88=ORIENTED_EDGE('',*,*,#173,.F.);
#89=ORIENTED_EDGE('',*,*,#174,.F.);
#90=ORIENTED_EDGE('',*,*,#170,.T.);
#91=ORIENTED_EDGE('',*,*,#175,.T.);
#92=ORIENTED_EDGE('',*,*,#176,.F.);
#93=ORIENTED_EDGE('',*,*,#177,.F.);
#94=ORIENTED_EDGE('',*,*,#173,.T.);
#95=ORIENTED_EDGE('',*,*,#178,.T.);
#96=ORIENTED_EDGE('',*,*,#179,.F.);
#97=ORIENTED_EDGE('',*,*,#180,.F.);
#98=ORIENTED_EDGE('',*,*,#176,.T.);
#99=ORIENTED_EDGE('',*,*,#181,.T.);
#100=ORIENTED_EDGE('',*,*,#138,.F.);
#101=ORIENTED_EDGE('',*,*,#182,.F.);
#102=ORIENTED_EDGE('',*,*,#179,.T.);
#103=ORIENTED_EDGE('',*,*,#137,.F.);
#104=ORIENTED_EDGE('',*,*,#141,.T.);
#105=ORIENTED_EDGE('',*,*,#144,.F.);
#106=ORIENTED_EDGE('',*,*,#147,.T.);
#107=ORIENTED_EDGE('',*,*,#150,.T.);
#108=ORIENTED_EDGE('',*,*,#153,.T.);
#109=ORIENTED_EDGE('',*,*,#156,.T.);
#110=ORIENTED_EDGE('',*,*,#159,.T.);
#111=ORIENTED_EDGE('',*,*,#162,.F.);
#112=ORIENTED_EDGE('',*,*,#165,.T.);
#113=ORIENTED_EDGE('',*,*,#168,.F.);
#114=ORIENTED_EDGE('',*,*,#171,.T.);
#115=ORIENTED_EDGE('',*,*,#174,.T.);
#116=ORIENTED_EDGE('',*,*,#177,.T.);
#117=ORIENTED_EDGE('',*,*,#180,.T.);
#118=ORIENTED_EDGE('',*,*,#182,.T.);
#119=ORIENTED_EDGE('',*,*,#135,.T.);
#120=ORIENTED_EDGE('',*,*,#181,.F.);
#121=ORIENTED_EDGE('',*,*,#178,.F.);
#122=ORIENTED_EDGE('',*,*,#175,.F.);
#123=ORIENTED_EDGE('',*,*,#172,.F.);
#124=ORIENTED_EDGE('',*,*,#169,.F.);
#125=ORIENTED_EDGE('',*,*,#166,.T.);
#126=ORIENTED_EDGE('',*,*,#163,.F.);
#127=ORIENTED_EDGE('',*,*,#160,.T.);
#128=ORIENTED_EDGE('',*,*,#157,.F.);
#129=ORIENTED_EDGE('',*,*,#154,.F.);
#130=ORIENTED_EDGE('',*,*,#151,.F.);
#131=ORIENTED_EDGE('',*,*,#148,.F.);
#132=ORIENTED_EDGE('',*,*,#145,.F.);
#133=ORIENTED_EDGE('',*,*,#142,.T.);
#134=ORIENTED_EDGE('',*,*,#139,.F.);
#135=EDGE_CURVE('',#183,#184,#215,.T.);
#136=EDGE_CURVE('',#185,#183,#216,.T.);
#137=EDGE_CURVE('',#185,#186,#217,.T.);
#138=EDGE_CURVE('',#186,#184,#218,.T.);
#139=EDGE_CURVE('',#183,#187,#12,.T.);
#140=EDGE_CURVE('',#188,#187,#219,.T.);
#141=EDGE_CURVE('',#185,#188,#13,.T.);
#142=EDGE_CURVE('',#189,#187,#14,.T.);
#143=EDGE_CURVE('',#190,#189,#220,.T.);
#144=EDGE_CURVE('',#190,#188,#15,.T.);
#145=EDGE_CURVE('',#189,#191,#16,.T.);
#146=EDGE_CURVE('',#192,#191,#221,.T.);
#147=EDGE_CURVE('',#190,#192,#17,.T.);
#148=EDGE_CURVE('',#191,#193,#222,.T.);
#149=EDGE_CURVE('',#194,#193,#223,.T.);
#150=EDGE_CURVE('',#192,#194,#224,.T.);
#151=EDGE_CURVE('',#193,#195,#18,.T.);
#152=EDGE_CURVE('',#196,#195,#225,.T.);
#153=EDGE_CURVE('',#194,#196,#19,.T.);
#154=EDGE_CURVE('',#195,#197,#226,.T.);
#155=EDGE_CURVE('',#198,#197,#227,.T.);
#156=EDGE_CURVE('',#196,#198,#228,.T.);
#157=EDGE_CURVE('',#197,#199,#20,.T.);
#158=EDGE_CURVE('',#200,#199,#229,.T.);
#159=EDGE_CURVE('',#198,#200,#21,.T.);
#160=EDGE_CURVE('',#201,#199,#230,.T.);
#161=EDGE_CURVE('',#202,#201,#231,.T.);
#162=EDGE_CURVE('',#202,#200,#232,.T.);
#163=EDGE_CURVE('',#201,#203,#22,.T.);
#164=EDGE_CURVE('',#204,#203,#233,.T.);
#165=EDGE_CURVE('',#202,#204,#23,.T.);
#166=EDGE_CURVE('',#205,#203,#234,.T.);
#167=EDGE_CURVE('',#206,#205,#235,.T.);
#168=EDGE_CURVE('',#206,#204,#236,.T.);
#169=EDGE_CURVE('',#205,#207,#24,.T.);
#170=EDGE_CURVE('',#208,#207,#237,.T.);
#171=EDGE_CURVE('',#206,#208,#25,.T.);
#172=EDGE_CURVE('',#207,#209,#238,.T.);
#173=EDGE_CURVE('',#210,#209,#239,.T.);
#174=EDGE_CURVE('',#208,#210,#240,.T.);
#175=EDGE_CURVE('',#209,#211,#26,.T.);
#176=EDGE_CURVE('',#212,#211,#241,.T.);
#177=EDGE_CURVE('',#210,#212,#27,.T.);
#178=EDGE_CURVE('',#211,#213,#242,.T.);
#179=EDGE_CURVE('',#214,#213,#243,.T.);
#180=EDGE_CURVE('',#212,#214,#244,.T.);
#181=EDGE_CURVE('',#213,#184,#28,.T.);
#182=EDGE_CURVE('',#214,#186,#29,.T.);
#183=VERTEX_POINT('',#494);
#184=VERTEX_POINT('',#495);
#185=VERTEX_POINT('',#497);
#186=VERTEX_POINT('',#499);
#187=VERTEX_POINT('',#503);
#188=VERTEX_POINT('',#505);
#189=VERTEX_POINT('',#509);
#190=VERTEX_POINT('',#511);
#191=VERTEX_POINT('',#515);
#192=VERTEX_POINT('',#517);
#193=VERTEX_POINT('',#521);
#194=VERTEX_POINT('',#523);
#195=VERTEX_POINT('',#527);
#196=VERTEX_POINT('',#529);
#197=VERTEX_POINT('',#533);
#198=VERTEX_POINT('',#535);
#199=VERTEX_POINT('',#539);
#200=VERTEX_POINT('',#541);
#201=VERTEX_POINT('',#545);
#202=VERTEX_POINT('',#547);
#203=VERTEX_POINT('',#551);
#204=VERTEX_POINT('',#553);
#205=VERTEX_POINT('',#557);
#206=VERTEX_POINT('',#559);
#207=VERTEX_POINT('',#563);
#208=VERTEX_POINT('',#565);
#209=VERTEX_POINT('',#569);
#210=VERTEX_POINT('',#571);
#211=VERTEX_POINT('',#575);
#212=VERTEX_POINT('',#577);
#213=VERTEX_POINT('',#581);
#214=VERTEX_POINT('',#583);
#215=LINE('',#493,#245);
#216=LINE('',#496,#246);
#217=LINE('',#498,#247);
#218=LINE('',#500,#248);
#219=LINE('',#504,#249);
#220=LINE('',#510,#250);
#221=LINE('',#516,#251);
#222=LINE('',#520,#252);
#223=LINE('',#522,#253);
#224=LINE('',#524,#254);
#225=LINE('',#528,#255);
#226=LINE('',#532,#256);
#227=LINE('',#534,#257);
#228=LINE('',#536,#258);
#229=LINE('',#540,#259);
#230=LINE('',#544,#260);
#231=LINE('',#546,#261);
#232=LINE('',#548,#262);
#233=LINE('',#552,#263);
#234=LINE('',#556,#264);
#235=LINE('',#558,#265);
#236=LINE('',#560,#266);
#237=LINE('',#564,#267);
#238=LINE('',#568,#268);
#239=LINE('',#570,#269);
#240=LINE('',#572,#270);
#241=LINE('',#576,#271);
#242=LINE('',#580,#272);
#243=LINE('',#582,#273);
#244=LINE('',#584,#274);
#245=VECTOR('',#391,1.);
#246=VECTOR('',#392,1.);
#247=VECTOR('',#393,1.);
#248=VECTOR('',#394,1.);
#249=VECTOR('',#399,1.);
#250=VECTOR('',#406,1.);
#251=VECTOR('',#413,1.);
#252=VECTOR('',#418,1.);
#253=VECTOR('',#419,1.);
#254=VECTOR('',#420,1.);
#255=VECTOR('',#425,1.);
#256=VECTOR('',#430,1.);
#257=VECTOR('',#431,1.);
#258=VECTOR('',#432,1.);
#259=VECTOR('',#437,1.);
#260=VECTOR('',#442,1.);
#261=VECTOR('',#443,1.);
#262=VECTOR('',#444,1.);
#263=VECTOR('',#449,1.);
#264=VECTOR('',#454,1.);
#265=VECTOR('',#455,1.);
#266=VECTOR('',#456,1.);
#267=VECTOR('',#461,1.);
#268=VECTOR('',#466,1.);
#269=VECTOR('',#467,1.);
#270=VECTOR('',#468,1.);
#271=VECTOR('',#473,1.);
#272=VECTOR('',#478,1.);
#273=VECTOR('',#479,1.);
#274=VECTOR('',#480,1.);
#275=EDGE_LOOP('',(#39,#40,#41,#42));
#276=EDGE_LOOP('',(#43,#44,#45,#46));
#277=EDGE_LOOP('',(#47,#48,#49,#50));
#278=EDGE_LOOP('',(#51,#52,#53,#54));
#279=EDGE_LOOP('',(#55,#56,#57,#58));
#280=EDGE_LOOP('',(#59,#60,#61,#62));
#281=EDGE_LOOP('',(#63,#64,#65,#66));
#282=EDGE_LOOP('',(#67,#68,#69,#70));
#283=EDGE_LOOP('',(#71,#72,#73,#74));
#284=EDGE_LOOP('',(#75,#76,#77,#78));
#285=EDGE_LOOP('',(#79,#80,#81,#82));
#286=EDGE_LOOP('',(#83,#84,#85,#86));
#287=EDGE_LOOP('',(#87,#88,#89,#90));
#288=EDGE_LOOP('',(#91,#92,#93,#94));
#289=EDGE_LOOP('',(#95,#96,#97,#98));
#290=EDGE_LOOP('',(#99,#100,#101,#102));
#291=EDGE_LOOP('',(#103,#104,#105,#106,#107,#108,#109,#110,#111,#112,#113,
#114,#115,#116,#117,#118));
#292=EDGE_LOOP('',(#119,#120,#121,#122,#123,#124,#125,#126,#127,#128,#129,
#130,#131,#132,#133,#134));
#293=FACE_BOUND('',#275,.T.);
#294=FACE_BOUND('',#276,.T.);
#295=FACE_BOUND('',#277,.T.);
#296=FACE_BOUND('',#278,.T.);
#297=FACE_BOUND('',#279,.T.);
#298=FACE_BOUND('',#280,.T.);
#299=FACE_BOUND('',#281,.T.);
#300=FACE_BOUND('',#282,.T.);
#301=FACE_BOUND('',#283,.T.);
#302=FACE_BOUND('',#284,.T.);
#303=FACE_BOUND('',#285,.T.);
#304=FACE_BOUND('',#286,.T.);
#305=FACE_BOUND('',#287,.T.);
#306=FACE_BOUND('',#288,.T.);
#307=FACE_BOUND('',#289,.T.);
#308=FACE_BOUND('',#290,.T.);
#309=FACE_BOUND('',#291,.T.);
#310=FACE_BOUND('',#292,.T.);
#311=PLANE('',#351);
#312=PLANE('',#361);
#313=PLANE('',#365);
#314=PLANE('',#369);
#315=PLANE('',#373);
#316=PLANE('',#377);
#317=PLANE('',#381);
#318=PLANE('',#385);
#319=PLANE('',#386);
#320=ADVANCED_FACE('',(#293),#311,.T.);
#321=ADVANCED_FACE('',(#294),#30,.T.);
#322=ADVANCED_FACE('',(#295),#31,.F.);
#323=ADVANCED_FACE('',(#296),#32,.T.);
#324=ADVANCED_FACE('',(#297),#312,.F.);
#325=ADVANCED_FACE('',(#298),#33,.T.);
#326=ADVANCED_FACE('',(#299),#313,.F.);
#327=ADVANCED_FACE('',(#300),#34,.T.);
#328=ADVANCED_FACE('',(#301),#314,.T.);
#329=ADVANCED_FACE('',(#302),#35,.T.);
#330=ADVANCED_FACE('',(#303),#315,.T.);
#331=ADVANCED_FACE('',(#304),#36,.T.);
#332=ADVANCED_FACE('',(#305),#316,.F.);
#333=ADVANCED_FACE('',(#306),#37,.T.);
#334=ADVANCED_FACE('',(#307),#317,.F.);
#335=ADVANCED_FACE('',(#308),#38,.T.);
#336=ADVANCED_FACE('',(#309),#318,.T.);
#337=ADVANCED_FACE('',(#310),#319,.F.);
#338=CLOSED_SHELL('',(#320,#321,#322,#323,#324,#325,#326,#327,#328,#329,
#330,#331,#332,#333,#334,#335,#336,#337));
#339=STYLED_ITEM('',(#340),#347);
#340=PRESENTATION_STYLE_ASSIGNMENT((#341));
#341=SURFACE_STYLE_USAGE(.BOTH.,#342);
#342=SURFACE_SIDE_STYLE('',(#343));
#343=SURFACE_STYLE_FILL_AREA(#344);
#344=FILL_AREA_STYLE('',(#345));
#345=FILL_AREA_STYLE_COLOUR('',#346);
#346=COLOUR_RGB('',0.917647058823529,0.917647058823529,0.917647058823529);
#347=MANIFOLD_SOLID_BREP('DSCH003-E015',#338);
#348=SHAPE_DEFINITION_REPRESENTATION(#596,#349);
#349=SHAPE_REPRESENTATION('DSCH003-E015',(#350),#591);
#350=AXIS2_PLACEMENT_3D('',#491,#387,#388);
#351=AXIS2_PLACEMENT_3D('',#492,#389,#390);
#352=AXIS2_PLACEMENT_3D('',#501,#395,#396);
#353=AXIS2_PLACEMENT_3D('',#502,#397,#398);
#354=AXIS2_PLACEMENT_3D('',#506,#400,#401);
#355=AXIS2_PLACEMENT_3D('',#507,#402,#403);
#356=AXIS2_PLACEMENT_3D('',#508,#404,#405);
#357=AXIS2_PLACEMENT_3D('',#512,#407,#408);
#358=AXIS2_PLACEMENT_3D('',#513,#409,#410);
#359=AXIS2_PLACEMENT_3D('',#514,#411,#412);
#360=AXIS2_PLACEMENT_3D('',#518,#414,#415);
#361=AXIS2_PLACEMENT_3D('',#519,#416,#417);
#362=AXIS2_PLACEMENT_3D('',#525,#421,#422);
#363=AXIS2_PLACEMENT_3D('',#526,#423,#424);
#364=AXIS2_PLACEMENT_3D('',#530,#426,#427);
#365=AXIS2_PLACEMENT_3D('',#531,#428,#429);
#366=AXIS2_PLACEMENT_3D('',#537,#433,#434);
#367=AXIS2_PLACEMENT_3D('',#538,#435,#436);
#368=AXIS2_PLACEMENT_3D('',#542,#438,#439);
#369=AXIS2_PLACEMENT_3D('',#543,#440,#441);
#370=AXIS2_PLACEMENT_3D('',#549,#445,#446);
#371=AXIS2_PLACEMENT_3D('',#550,#447,#448);
#372=AXIS2_PLACEMENT_3D('',#554,#450,#451);
#373=AXIS2_PLACEMENT_3D('',#555,#452,#453);
#374=AXIS2_PLACEMENT_3D('',#561,#457,#458);
#375=AXIS2_PLACEMENT_3D('',#562,#459,#460);
#376=AXIS2_PLACEMENT_3D('',#566,#462,#463);
#377=AXIS2_PLACEMENT_3D('',#567,#464,#465);
#378=AXIS2_PLACEMENT_3D('',#573,#469,#470);
#379=AXIS2_PLACEMENT_3D('',#574,#471,#472);
#380=AXIS2_PLACEMENT_3D('',#578,#474,#475);
#381=AXIS2_PLACEMENT_3D('',#579,#476,#477);
#382=AXIS2_PLACEMENT_3D('',#585,#481,#482);
#383=AXIS2_PLACEMENT_3D('',#586,#483,#484);
#384=AXIS2_PLACEMENT_3D('',#587,#485,#486);
#385=AXIS2_PLACEMENT_3D('',#588,#487,#488);
#386=AXIS2_PLACEMENT_3D('',#589,#489,#490);
#387=DIRECTION('',(0.,0.,1.));
#388=DIRECTION('',(1.,0.,0.));
#389=DIRECTION('',(-1.,0.,0.));
#390=DIRECTION('',(0.,0.,1.));
#391=DIRECTION('',(0.,1.,0.));
#392=DIRECTION('',(0.,0.,-1.));
#393=DIRECTION('',(0.,1.,0.));
#394=DIRECTION('',(0.,0.,-1.));
#395=DIRECTION('',(0.,0.,-1.));
#396=DIRECTION('',(-1.,0.,0.));
#397=DIRECTION('',(0.,0.,1.));
#398=DIRECTION('',(1.,0.,0.));
#399=DIRECTION('',(0.,0.,-1.));
#400=DIRECTION('',(0.,0.,1.));
#401=DIRECTION('',(1.,0.,0.));
#402=DIRECTION('',(0.,0.,-1.));
#403=DIRECTION('',(-1.,0.,0.));
#404=DIRECTION('',(0.,0.,1.));
#405=DIRECTION('',(1.,0.,0.));
#406=DIRECTION('',(0.,0.,-1.));
#407=DIRECTION('',(0.,0.,1.));
#408=DIRECTION('',(1.,0.,0.));
#409=DIRECTION('',(0.,0.,-1.));
#410=DIRECTION('',(-1.,0.,0.));
#411=DIRECTION('',(0.,0.,1.));
#412=DIRECTION('',(1.,0.,0.));
#413=DIRECTION('',(0.,0.,-1.));
#414=DIRECTION('',(0.,0.,1.));
#415=DIRECTION('',(1.,0.,0.));
#416=DIRECTION('',(-1.,0.,0.));
#417=DIRECTION('',(0.,0.,1.));
#418=DIRECTION('',(0.,1.,0.));
#419=DIRECTION('',(0.,0.,-1.));
#420=DIRECTION('',(0.,1.,0.));
#421=DIRECTION('',(0.,0.,-1.));
#422=DIRECTION('',(-1.,0.,0.));
#423=DIRECTION('',(0.,0.,1.));
#424=DIRECTION('',(1.,0.,0.));
#425=DIRECTION('',(0.,0.,-1.));
#426=DIRECTION('',(0.,0.,1.));
#427=DIRECTION('',(1.,0.,0.));
#428=DIRECTION('',(0.,-1.,0.));
#429=DIRECTION('',(0.,0.,-1.));
#430=DIRECTION('',(-1.,0.,0.));
#431=DIRECTION('',(0.,0.,-1.));
#432=DIRECTION('',(-1.,0.,0.));
#433=DIRECTION('',(0.,0.,-1.));
#434=DIRECTION('',(-1.,0.,0.));
#435=DIRECTION('',(0.,0.,1.));
#436=DIRECTION('',(1.,0.,0.));
#437=DIRECTION('',(0.,0.,-1.));
#438=DIRECTION('',(0.,0.,1.));
#439=DIRECTION('',(1.,0.,0.));
#440=DIRECTION('',(-1.,0.,0.));
#441=DIRECTION('',(0.,0.,1.));
#442=DIRECTION('',(0.,1.,0.));
#443=DIRECTION('',(0.,0.,-1.));
#444=DIRECTION('',(0.,1.,0.));
#445=DIRECTION('',(0.,0.,-1.));
#446=DIRECTION('',(-1.,0.,0.));
#447=DIRECTION('',(0.,0.,1.));
#448=DIRECTION('',(1.,0.,0.));
#449=DIRECTION('',(0.,0.,-1.));
#450=DIRECTION('',(0.,0.,1.));
#451=DIRECTION('',(1.,0.,0.));
#452=DIRECTION('',(1.21957499717155E-16,-1.,0.));
#453=DIRECTION('',(1.,1.21957499717155E-16,0.));
#454=DIRECTION('',(-1.,-1.21957499717155E-16,0.));
#455=DIRECTION('',(0.,0.,-1.));
#456=DIRECTION('',(-1.,-1.21957499717155E-16,0.));
#457=DIRECTION('',(0.,0.,-1.));
#458=DIRECTION('',(-1.,0.,0.));
#459=DIRECTION('',(0.,0.,1.));
#460=DIRECTION('',(1.,0.,0.));
#461=DIRECTION('',(0.,0.,-1.));
#462=DIRECTION('',(0.,0.,1.));
#463=DIRECTION('',(1.,0.,0.));
#464=DIRECTION('',(-1.,0.,0.));
#465=DIRECTION('',(0.,0.,1.));
#466=DIRECTION('',(0.,1.,0.));
#467=DIRECTION('',(0.,0.,-1.));
#468=DIRECTION('',(0.,1.,0.));
#469=DIRECTION('',(0.,0.,-1.));
#470=DIRECTION('',(-1.,0.,0.));
#471=DIRECTION('',(0.,0.,1.));
#472=DIRECTION('',(1.,0.,0.));
#473=DIRECTION('',(0.,0.,-1.));
#474=DIRECTION('',(0.,0.,1.));
#475=DIRECTION('',(1.,0.,0.));
#476=DIRECTION('',(0.,-1.,0.));
#477=DIRECTION('',(0.,0.,-1.));
#478=DIRECTION('',(-1.,0.,0.));
#479=DIRECTION('',(0.,0.,-1.));
#480=DIRECTION('',(-1.,0.,0.));
#481=DIRECTION('',(0.,0.,-1.));
#482=DIRECTION('',(-1.,0.,0.));
#483=DIRECTION('',(0.,0.,1.));
#484=DIRECTION('',(1.,0.,0.));
#485=DIRECTION('',(0.,0.,1.));
#486=DIRECTION('',(1.,0.,0.));
#487=DIRECTION('',(0.,0.,1.));
#488=DIRECTION('',(1.,0.,0.));
#489=DIRECTION('',(0.,0.,1.));
#490=DIRECTION('',(1.,0.,0.));
#491=CARTESIAN_POINT('',(0.,0.,0.));
#492=CARTESIAN_POINT('',(0.007112,0.0077432614690566,0.000381));
#493=CARTESIAN_POINT('',(0.007112,0.0077432614690566,0.));
#494=CARTESIAN_POINT('',(0.007112,0.0043105229381132,0.));
#495=CARTESIAN_POINT('',(0.007112,0.011176,0.));
#496=CARTESIAN_POINT('',(0.007112,0.0043105229381132,0.000381));
#497=CARTESIAN_POINT('',(0.007112,0.0043105229381132,0.000381));
#498=CARTESIAN_POINT('',(0.007112,0.0077432614690566,0.000381));
#499=CARTESIAN_POINT('',(0.007112,0.011176,0.000381));
#500=CARTESIAN_POINT('',(0.007112,0.011176,0.000381));
#501=CARTESIAN_POINT('',(0.008636,0.00431052293811321,0.000381));
#502=CARTESIAN_POINT('',(0.008636,0.00431052293811321,0.));
#503=CARTESIAN_POINT('',(0.00727242105263158,0.00362991405314795,0.));
#504=CARTESIAN_POINT('',(0.00727242105263158,0.00362991405314795,0.000381));
#505=CARTESIAN_POINT('',(0.00727242105263158,0.00362991405314795,0.000381));
#506=CARTESIAN_POINT('',(0.008636,0.00431052293811321,0.000381));
#507=CARTESIAN_POINT('',(-5.7492903972119E-19,-2.16840434497101E-19,0.000381));
#508=CARTESIAN_POINT('',(-5.7492903972119E-19,-2.16840434497101E-19,0.));
#509=CARTESIAN_POINT('',(-0.00727242105263158,0.00362991405314795,0.));
#510=CARTESIAN_POINT('',(-0.00727242105263158,0.00362991405314795,0.000381));
#511=CARTESIAN_POINT('',(-0.00727242105263158,0.00362991405314795,0.000381));
#512=CARTESIAN_POINT('',(-5.7492903972119E-19,-2.16840434497101E-19,0.000381));
#513=CARTESIAN_POINT('',(-0.008636,0.00431052293811321,0.000381));
#514=CARTESIAN_POINT('',(-0.008636,0.00431052293811321,0.));
#515=CARTESIAN_POINT('',(-0.007112,0.0043105229381132,0.));
#516=CARTESIAN_POINT('',(-0.007112,0.0043105229381132,0.000381));
#517=CARTESIAN_POINT('',(-0.007112,0.0043105229381132,0.000381));
#518=CARTESIAN_POINT('',(-0.008636,0.00431052293811321,0.000381));
#519=CARTESIAN_POINT('',(-0.007112,0.0077432614690566,0.000381));
#520=CARTESIAN_POINT('',(-0.007112,0.0077432614690566,0.));
#521=CARTESIAN_POINT('',(-0.007112,0.011176,0.));
#522=CARTESIAN_POINT('',(-0.007112,0.011176,0.000381));
#523=CARTESIAN_POINT('',(-0.007112,0.011176,0.000381));
#524=CARTESIAN_POINT('',(-0.007112,0.0077432614690566,0.000381));
#525=CARTESIAN_POINT('',(-0.008636,0.011176,0.000381));
#526=CARTESIAN_POINT('',(-0.008636,0.011176,0.));
#527=CARTESIAN_POINT('',(-0.008636,0.0127,0.));
#528=CARTESIAN_POINT('',(-0.008636,0.0127,0.000381));
#529=CARTESIAN_POINT('',(-0.008636,0.0127,0.000381));
#530=CARTESIAN_POINT('',(-0.008636,0.011176,0.000381));
#531=CARTESIAN_POINT('',(-0.01143,0.0127,0.000381));
#532=CARTESIAN_POINT('',(-0.01143,0.0127,0.));
#533=CARTESIAN_POINT('',(-0.014224,0.0127,0.));
#534=CARTESIAN_POINT('',(-0.014224,0.0127,0.000381));
#535=CARTESIAN_POINT('',(-0.014224,0.0127,0.000381));
#536=CARTESIAN_POINT('',(-0.01143,0.0127,0.000381));
#537=CARTESIAN_POINT('',(-0.014224,0.011176,0.000381));
#538=CARTESIAN_POINT('',(-0.014224,0.011176,0.));
#539=CARTESIAN_POINT('',(-0.015748,0.011176,0.));
#540=CARTESIAN_POINT('',(-0.015748,0.011176,0.000381));
#541=CARTESIAN_POINT('',(-0.015748,0.011176,0.000381));
#542=CARTESIAN_POINT('',(-0.014224,0.011176,0.000381));
#543=CARTESIAN_POINT('',(-0.015748,-3.46944695195361E-18,0.000381));
#544=CARTESIAN_POINT('',(-0.015748,-3.46944695195361E-18,0.));
#545=CARTESIAN_POINT('',(-0.015748,-0.011176,0.));
#546=CARTESIAN_POINT('',(-0.015748,-0.011176,0.000381));
#547=CARTESIAN_POINT('',(-0.015748,-0.011176,0.000381));
#548=CARTESIAN_POINT('',(-0.015748,-3.46944695195361E-18,0.000381));
#549=CARTESIAN_POINT('',(-0.014224,-0.011176,0.000381));
#550=CARTESIAN_POINT('',(-0.014224,-0.011176,0.));
#551=CARTESIAN_POINT('',(-0.014224,-0.0127,0.));
#552=CARTESIAN_POINT('',(-0.014224,-0.0127,0.000381));
#553=CARTESIAN_POINT('',(-0.014224,-0.0127,0.000381));
#554=CARTESIAN_POINT('',(-0.014224,-0.011176,0.000381));
#555=CARTESIAN_POINT('',(-8.67361737988404E-19,-0.0127,0.000381));
#556=CARTESIAN_POINT('',(-8.67361737988404E-19,-0.0127,0.));
#557=CARTESIAN_POINT('',(0.014224,-0.0127,0.));
#558=CARTESIAN_POINT('',(0.014224,-0.0127,0.000381));
#559=CARTESIAN_POINT('',(0.014224,-0.0127,0.000381));
#560=CARTESIAN_POINT('',(-8.67361737988404E-19,-0.0127,0.000381));
#561=CARTESIAN_POINT('',(0.014224,-0.011176,0.000381));
#562=CARTESIAN_POINT('',(0.014224,-0.011176,0.));
#563=CARTESIAN_POINT('',(0.015748,-0.011176,0.));
#564=CARTESIAN_POINT('',(0.015748,-0.011176,0.000381));
#565=CARTESIAN_POINT('',(0.015748,-0.011176,0.000381));
#566=CARTESIAN_POINT('',(0.014224,-0.011176,0.000381));
#567=CARTESIAN_POINT('',(0.015748,-1.7347234759768E-18,0.000381));
#568=CARTESIAN_POINT('',(0.015748,-1.7347234759768E-18,0.));
#569=CARTESIAN_POINT('',(0.015748,0.011176,0.));
#570=CARTESIAN_POINT('',(0.015748,0.011176,0.000381));
#571=CARTESIAN_POINT('',(0.015748,0.011176,0.000381));
#572=CARTESIAN_POINT('',(0.015748,-1.7347234759768E-18,0.000381));
#573=CARTESIAN_POINT('',(0.014224,0.011176,0.000381));
#574=CARTESIAN_POINT('',(0.014224,0.011176,0.));
#575=CARTESIAN_POINT('',(0.014224,0.0127,0.));
#576=CARTESIAN_POINT('',(0.014224,0.0127,0.000381));
#577=CARTESIAN_POINT('',(0.014224,0.0127,0.000381));
#578=CARTESIAN_POINT('',(0.014224,0.011176,0.000381));
#579=CARTESIAN_POINT('',(0.01143,0.0127,0.000381));
#580=CARTESIAN_POINT('',(0.01143,0.0127,0.));
#581=CARTESIAN_POINT('',(0.008636,0.0127,0.));
#582=CARTESIAN_POINT('',(0.008636,0.0127,0.000381));
#583=CARTESIAN_POINT('',(0.008636,0.0127,0.000381));
#584=CARTESIAN_POINT('',(0.01143,0.0127,0.000381));
#585=CARTESIAN_POINT('',(0.008636,0.011176,0.000381));
#586=CARTESIAN_POINT('',(0.008636,0.011176,0.));
#587=CARTESIAN_POINT('',(0.008636,0.011176,0.000381));
#588=CARTESIAN_POINT('',(0.,0.,0.000381));
#589=CARTESIAN_POINT('',(0.,0.,0.));
#590=MECHANICAL_DESIGN_GEOMETRIC_PRESENTATION_REPRESENTATION('',(#339),
#591);
#591=(
GEOMETRIC_REPRESENTATION_CONTEXT(3)
GLOBAL_UNCERTAINTY_ASSIGNED_CONTEXT((#592))
GLOBAL_UNIT_ASSIGNED_CONTEXT((#595,#594,#593))
REPRESENTATION_CONTEXT('DSCH003-E015','TOP_LEVEL_ASSEMBLY_PART')
);
#592=UNCERTAINTY_MEASURE_WITH_UNIT(LENGTH_MEASURE(5.E-6),#595,
'DISTANCE_ACCURACY_VALUE','Maximum Tolerance applied to model');
#593=(
NAMED_UNIT(*)
SI_UNIT($,.STERADIAN.)
SOLID_ANGLE_UNIT()
);
#594=(
NAMED_UNIT(*)
PLANE_ANGLE_UNIT()
SI_UNIT($,.RADIAN.)
);
#595=(
LENGTH_UNIT()
NAMED_UNIT(*)
SI_UNIT($,.METRE.)
);
#596=PRODUCT_DEFINITION_SHAPE('','',#597);
#597=PRODUCT_DEFINITION('','',#599,#598);
#598=PRODUCT_DEFINITION_CONTEXT('',#605,'design');
#599=PRODUCT_DEFINITION_FORMATION_WITH_SPECIFIED_SOURCE('','',#601,
 .NOT_KNOWN.);
#600=PRODUCT_RELATED_PRODUCT_CATEGORY('','',(#601));
#601=PRODUCT('DSCH003-E015','DSCH003-E015','DSCH003-E015',(#603));
#602=PRODUCT_CATEGORY('','');
#603=PRODUCT_CONTEXT('',#605,'mechanical');
#604=APPLICATION_PROTOCOL_DEFINITION('international standard',
'ap242_managed_model_based_3d_engineering',2011,#605);
#605=APPLICATION_CONTEXT('managed model based 3d engineering');
ENDSEC;
END-ISO-10303-21;
