ISO-10303-21;
HEADER;
/* Generated by software containing ST-Developer
 * from STEP Tools, Inc. (www.steptools.com) 
 */
/* OPTION: using custom renumber hook */

FILE_DESCRIPTION(
/* description */ ('STEP AP242',
'CAx-IF Rec.Pracs.---Representation and Presentation of Product Manufa
cturing Information (PMI)---4.0---2014-10-13',
'CAx-IF Rec.Pracs.---3D Tessellated Geometry---0.4---2014-09-14','2;1'),

/* implementation_level */ '2;1');

FILE_NAME(
/* name */ '627255455e686866af01532a',
/* time_stamp */ '2022-05-04T10:28:21+00:00',
/* author */ (''),
/* organization */ (''),
/* preprocessor_version */ 'ST-DEVELOPER v18.101',
/* originating_system */ '  ',
/* authorisation */ '  ');

FILE_SCHEMA (('AP242_MANAGED_MODEL_BASED_3D_ENGINEERING_MIM_LF { 1 0 10303 442 1 1 4 }'));
ENDSEC;

DATA;
#10=SHAPE_REPRESENTATION_RELATIONSHIP('','',#340,#11);
#11=ADVANCED_BREP_SHAPE_REPRESENTATION('',(#338),#546);
#12=PLANE('',#345);
#13=PLANE('',#346);
#14=PLANE('',#347);
#15=PLANE('',#348);
#16=PLANE('',#349);
#17=PLANE('',#350);
#18=PLANE('',#354);
#19=PLANE('',#355);
#20=PLANE('',#356);
#21=PLANE('',#360);
#22=PLANE('',#361);
#23=PLANE('',#362);
#24=PLANE('',#363);
#25=PLANE('',#364);
#26=LINE('',#457,#65);
#27=LINE('',#461,#66);
#28=LINE('',#463,#67);
#29=LINE('',#465,#68);
#30=LINE('',#467,#69);
#31=LINE('',#469,#70);
#32=LINE('',#471,#71);
#33=LINE('',#473,#72);
#34=LINE('',#475,#73);
#35=LINE('',#477,#74);
#36=LINE('',#479,#75);
#37=LINE('',#481,#76);
#38=LINE('',#483,#77);
#39=LINE('',#485,#78);
#40=LINE('',#487,#79);
#41=LINE('',#489,#80);
#42=LINE('',#491,#81);
#43=LINE('',#493,#82);
#44=LINE('',#495,#83);
#45=LINE('',#497,#84);
#46=LINE('',#501,#85);
#47=LINE('',#505,#86);
#48=LINE('',#507,#87);
#49=LINE('',#509,#88);
#50=LINE('',#511,#89);
#51=LINE('',#513,#90);
#52=LINE('',#515,#91);
#53=LINE('',#517,#92);
#54=LINE('',#519,#93);
#55=LINE('',#521,#94);
#56=LINE('',#525,#95);
#57=LINE('',#529,#96);
#58=LINE('',#531,#97);
#59=LINE('',#533,#98);
#60=LINE('',#535,#99);
#61=LINE('',#537,#100);
#62=LINE('',#539,#101);
#63=LINE('',#541,#102);
#64=LINE('',#542,#103);
#65=VECTOR('',#371,1.);
#66=VECTOR('',#374,1.);
#67=VECTOR('',#377,1.);
#68=VECTOR('',#378,1.);
#69=VECTOR('',#379,1.);
#70=VECTOR('',#382,1.);
#71=VECTOR('',#383,1.);
#72=VECTOR('',#384,1.);
#73=VECTOR('',#387,1.);
#74=VECTOR('',#388,1.);
#75=VECTOR('',#389,1.);
#76=VECTOR('',#392,1.);
#77=VECTOR('',#393,1.);
#78=VECTOR('',#394,1.);
#79=VECTOR('',#397,1.);
#80=VECTOR('',#398,1.);
#81=VECTOR('',#399,1.);
#82=VECTOR('',#402,1.);
#83=VECTOR('',#403,1.);
#84=VECTOR('',#404,1.);
#85=VECTOR('',#409,1.);
#86=VECTOR('',#414,1.);
#87=VECTOR('',#415,1.);
#88=VECTOR('',#416,1.);
#89=VECTOR('',#419,1.);
#90=VECTOR('',#420,1.);
#91=VECTOR('',#421,1.);
#92=VECTOR('',#424,1.);
#93=VECTOR('',#425,1.);
#94=VECTOR('',#426,1.);
#95=VECTOR('',#431,1.);
#96=VECTOR('',#436,1.);
#97=VECTOR('',#437,1.);
#98=VECTOR('',#438,1.);
#99=VECTOR('',#441,1.);
#100=VECTOR('',#442,1.);
#101=VECTOR('',#443,1.);
#102=VECTOR('',#446,1.);
#103=VECTOR('',#447,1.);
#104=ORIENTED_EDGE('',*,*,#194,.F.);
#105=ORIENTED_EDGE('',*,*,#195,.F.);
#106=ORIENTED_EDGE('',*,*,#196,.T.);
#107=ORIENTED_EDGE('',*,*,#197,.T.);
#108=ORIENTED_EDGE('',*,*,#198,.T.);
#109=ORIENTED_EDGE('',*,*,#199,.F.);
#110=ORIENTED_EDGE('',*,*,#200,.F.);
#111=ORIENTED_EDGE('',*,*,#195,.T.);
#112=ORIENTED_EDGE('',*,*,#201,.T.);
#113=ORIENTED_EDGE('',*,*,#202,.F.);
#114=ORIENTED_EDGE('',*,*,#203,.F.);
#115=ORIENTED_EDGE('',*,*,#199,.T.);
#116=ORIENTED_EDGE('',*,*,#204,.F.);
#117=ORIENTED_EDGE('',*,*,#205,.F.);
#118=ORIENTED_EDGE('',*,*,#206,.T.);
#119=ORIENTED_EDGE('',*,*,#202,.T.);
#120=ORIENTED_EDGE('',*,*,#207,.F.);
#121=ORIENTED_EDGE('',*,*,#208,.F.);
#122=ORIENTED_EDGE('',*,*,#209,.T.);
#123=ORIENTED_EDGE('',*,*,#205,.T.);
#124=ORIENTED_EDGE('',*,*,#210,.T.);
#125=ORIENTED_EDGE('',*,*,#211,.F.);
#126=ORIENTED_EDGE('',*,*,#212,.F.);
#127=ORIENTED_EDGE('',*,*,#208,.T.);
#128=ORIENTED_EDGE('',*,*,#213,.F.);
#129=ORIENTED_EDGE('',*,*,#214,.F.);
#130=ORIENTED_EDGE('',*,*,#215,.T.);
#131=ORIENTED_EDGE('',*,*,#211,.T.);
#132=ORIENTED_EDGE('',*,*,#216,.F.);
#133=ORIENTED_EDGE('',*,*,#217,.F.);
#134=ORIENTED_EDGE('',*,*,#218,.T.);
#135=ORIENTED_EDGE('',*,*,#214,.T.);
#136=ORIENTED_EDGE('',*,*,#219,.T.);
#137=ORIENTED_EDGE('',*,*,#220,.F.);
#138=ORIENTED_EDGE('',*,*,#221,.F.);
#139=ORIENTED_EDGE('',*,*,#217,.T.);
#140=ORIENTED_EDGE('',*,*,#222,.T.);
#141=ORIENTED_EDGE('',*,*,#223,.F.);
#142=ORIENTED_EDGE('',*,*,#224,.F.);
#143=ORIENTED_EDGE('',*,*,#220,.T.);
#144=ORIENTED_EDGE('',*,*,#225,.F.);
#145=ORIENTED_EDGE('',*,*,#226,.F.);
#146=ORIENTED_EDGE('',*,*,#227,.T.);
#147=ORIENTED_EDGE('',*,*,#223,.T.);
#148=ORIENTED_EDGE('',*,*,#228,.F.);
#149=ORIENTED_EDGE('',*,*,#229,.F.);
#150=ORIENTED_EDGE('',*,*,#230,.T.);
#151=ORIENTED_EDGE('',*,*,#226,.T.);
#152=ORIENTED_EDGE('',*,*,#231,.T.);
#153=ORIENTED_EDGE('',*,*,#232,.F.);
#154=ORIENTED_EDGE('',*,*,#233,.F.);
#155=ORIENTED_EDGE('',*,*,#229,.T.);
#156=ORIENTED_EDGE('',*,*,#234,.T.);
#157=ORIENTED_EDGE('',*,*,#235,.F.);
#158=ORIENTED_EDGE('',*,*,#236,.F.);
#159=ORIENTED_EDGE('',*,*,#232,.T.);
#160=ORIENTED_EDGE('',*,*,#237,.F.);
#161=ORIENTED_EDGE('',*,*,#197,.F.);
#162=ORIENTED_EDGE('',*,*,#238,.T.);
#163=ORIENTED_EDGE('',*,*,#235,.T.);
#164=ORIENTED_EDGE('',*,*,#196,.F.);
#165=ORIENTED_EDGE('',*,*,#200,.T.);
#166=ORIENTED_EDGE('',*,*,#203,.T.);
#167=ORIENTED_EDGE('',*,*,#206,.F.);
#168=ORIENTED_EDGE('',*,*,#209,.F.);
#169=ORIENTED_EDGE('',*,*,#212,.T.);
#170=ORIENTED_EDGE('',*,*,#215,.F.);
#171=ORIENTED_EDGE('',*,*,#218,.F.);
#172=ORIENTED_EDGE('',*,*,#221,.T.);
#173=ORIENTED_EDGE('',*,*,#224,.T.);
#174=ORIENTED_EDGE('',*,*,#227,.F.);
#175=ORIENTED_EDGE('',*,*,#230,.F.);
#176=ORIENTED_EDGE('',*,*,#233,.T.);
#177=ORIENTED_EDGE('',*,*,#236,.T.);
#178=ORIENTED_EDGE('',*,*,#238,.F.);
#179=ORIENTED_EDGE('',*,*,#194,.T.);
#180=ORIENTED_EDGE('',*,*,#237,.T.);
#181=ORIENTED_EDGE('',*,*,#234,.F.);
#182=ORIENTED_EDGE('',*,*,#231,.F.);
#183=ORIENTED_EDGE('',*,*,#228,.T.);
#184=ORIENTED_EDGE('',*,*,#225,.T.);
#185=ORIENTED_EDGE('',*,*,#222,.F.);
#186=ORIENTED_EDGE('',*,*,#219,.F.);
#187=ORIENTED_EDGE('',*,*,#216,.T.);
#188=ORIENTED_EDGE('',*,*,#213,.T.);
#189=ORIENTED_EDGE('',*,*,#210,.F.);
#190=ORIENTED_EDGE('',*,*,#207,.T.);
#191=ORIENTED_EDGE('',*,*,#204,.T.);
#192=ORIENTED_EDGE('',*,*,#201,.F.);
#193=ORIENTED_EDGE('',*,*,#198,.F.);
#194=EDGE_CURVE('',#239,#240,#269,.T.);
#195=EDGE_CURVE('',#241,#239,#26,.T.);
#196=EDGE_CURVE('',#241,#242,#270,.T.);
#197=EDGE_CURVE('',#242,#240,#27,.T.);
#198=EDGE_CURVE('',#239,#243,#28,.T.);
#199=EDGE_CURVE('',#244,#243,#29,.T.);
#200=EDGE_CURVE('',#241,#244,#30,.T.);
#201=EDGE_CURVE('',#243,#245,#31,.T.);
#202=EDGE_CURVE('',#246,#245,#32,.T.);
#203=EDGE_CURVE('',#244,#246,#33,.T.);
#204=EDGE_CURVE('',#247,#245,#34,.T.);
#205=EDGE_CURVE('',#248,#247,#35,.T.);
#206=EDGE_CURVE('',#248,#246,#36,.T.);
#207=EDGE_CURVE('',#249,#247,#37,.T.);
#208=EDGE_CURVE('',#250,#249,#38,.T.);
#209=EDGE_CURVE('',#250,#248,#39,.T.);
#210=EDGE_CURVE('',#249,#251,#40,.T.);
#211=EDGE_CURVE('',#252,#251,#41,.T.);
#212=EDGE_CURVE('',#250,#252,#42,.T.);
#213=EDGE_CURVE('',#253,#251,#43,.T.);
#214=EDGE_CURVE('',#254,#253,#44,.T.);
#215=EDGE_CURVE('',#254,#252,#45,.T.);
#216=EDGE_CURVE('',#255,#253,#271,.T.);
#217=EDGE_CURVE('',#256,#255,#46,.T.);
#218=EDGE_CURVE('',#256,#254,#272,.T.);
#219=EDGE_CURVE('',#255,#257,#47,.T.);
#220=EDGE_CURVE('',#258,#257,#48,.T.);
#221=EDGE_CURVE('',#256,#258,#49,.T.);
#222=EDGE_CURVE('',#257,#259,#50,.T.);
#223=EDGE_CURVE('',#260,#259,#51,.T.);
#224=EDGE_CURVE('',#258,#260,#52,.T.);
#225=EDGE_CURVE('',#261,#259,#53,.T.);
#226=EDGE_CURVE('',#262,#261,#54,.T.);
#227=EDGE_CURVE('',#262,#260,#55,.T.);
#228=EDGE_CURVE('',#263,#261,#273,.T.);
#229=EDGE_CURVE('',#264,#263,#56,.T.);
#230=EDGE_CURVE('',#264,#262,#274,.T.);
#231=EDGE_CURVE('',#263,#265,#57,.T.);
#232=EDGE_CURVE('',#266,#265,#58,.T.);
#233=EDGE_CURVE('',#264,#266,#59,.T.);
#234=EDGE_CURVE('',#265,#267,#60,.T.);
#235=EDGE_CURVE('',#268,#267,#61,.T.);
#236=EDGE_CURVE('',#266,#268,#62,.T.);
#237=EDGE_CURVE('',#240,#267,#63,.T.);
#238=EDGE_CURVE('',#242,#268,#64,.T.);
#239=VERTEX_POINT('',#455);
#240=VERTEX_POINT('',#456);
#241=VERTEX_POINT('',#458);
#242=VERTEX_POINT('',#460);
#243=VERTEX_POINT('',#464);
#244=VERTEX_POINT('',#466);
#245=VERTEX_POINT('',#470);
#246=VERTEX_POINT('',#472);
#247=VERTEX_POINT('',#476);
#248=VERTEX_POINT('',#478);
#249=VERTEX_POINT('',#482);
#250=VERTEX_POINT('',#484);
#251=VERTEX_POINT('',#488);
#252=VERTEX_POINT('',#490);
#253=VERTEX_POINT('',#494);
#254=VERTEX_POINT('',#496);
#255=VERTEX_POINT('',#500);
#256=VERTEX_POINT('',#502);
#257=VERTEX_POINT('',#506);
#258=VERTEX_POINT('',#508);
#259=VERTEX_POINT('',#512);
#260=VERTEX_POINT('',#514);
#261=VERTEX_POINT('',#518);
#262=VERTEX_POINT('',#520);
#263=VERTEX_POINT('',#524);
#264=VERTEX_POINT('',#526);
#265=VERTEX_POINT('',#530);
#266=VERTEX_POINT('',#532);
#267=VERTEX_POINT('',#536);
#268=VERTEX_POINT('',#538);
#269=CIRCLE('',#343,0.00508);
#270=CIRCLE('',#344,0.00508);
#271=CIRCLE('',#352,0.00508);
#272=CIRCLE('',#353,0.00508);
#273=CIRCLE('',#358,0.00508);
#274=CIRCLE('',#359,0.00508);
#275=EDGE_LOOP('',(#104,#105,#106,#107));
#276=EDGE_LOOP('',(#108,#109,#110,#111));
#277=EDGE_LOOP('',(#112,#113,#114,#115));
#278=EDGE_LOOP('',(#116,#117,#118,#119));
#279=EDGE_LOOP('',(#120,#121,#122,#123));
#280=EDGE_LOOP('',(#124,#125,#126,#127));
#281=EDGE_LOOP('',(#128,#129,#130,#131));
#282=EDGE_LOOP('',(#132,#133,#134,#135));
#283=EDGE_LOOP('',(#136,#137,#138,#139));
#284=EDGE_LOOP('',(#140,#141,#142,#143));
#285=EDGE_LOOP('',(#144,#145,#146,#147));
#286=EDGE_LOOP('',(#148,#149,#150,#151));
#287=EDGE_LOOP('',(#152,#153,#154,#155));
#288=EDGE_LOOP('',(#156,#157,#158,#159));
#289=EDGE_LOOP('',(#160,#161,#162,#163));
#290=EDGE_LOOP('',(#164,#165,#166,#167,#168,#169,#170,#171,#172,#173,#174,
#175,#176,#177,#178));
#291=EDGE_LOOP('',(#179,#180,#181,#182,#183,#184,#185,#186,#187,#188,#189,
#190,#191,#192,#193));
#292=FACE_BOUND('',#275,.T.);
#293=FACE_BOUND('',#276,.T.);
#294=FACE_BOUND('',#277,.T.);
#295=FACE_BOUND('',#278,.T.);
#296=FACE_BOUND('',#279,.T.);
#297=FACE_BOUND('',#280,.T.);
#298=FACE_BOUND('',#281,.T.);
#299=FACE_BOUND('',#282,.T.);
#300=FACE_BOUND('',#283,.T.);
#301=FACE_BOUND('',#284,.T.);
#302=FACE_BOUND('',#285,.T.);
#303=FACE_BOUND('',#286,.T.);
#304=FACE_BOUND('',#287,.T.);
#305=FACE_BOUND('',#288,.T.);
#306=FACE_BOUND('',#289,.T.);
#307=FACE_BOUND('',#290,.T.);
#308=FACE_BOUND('',#291,.T.);
#309=CYLINDRICAL_SURFACE('',#342,0.00508);
#310=CYLINDRICAL_SURFACE('',#351,0.00508);
#311=CYLINDRICAL_SURFACE('',#357,0.00508);
#312=ADVANCED_FACE('',(#292),#309,.F.);
#313=ADVANCED_FACE('',(#293),#12,.F.);
#314=ADVANCED_FACE('',(#294),#13,.F.);
#315=ADVANCED_FACE('',(#295),#14,.T.);
#316=ADVANCED_FACE('',(#296),#15,.T.);
#317=ADVANCED_FACE('',(#297),#16,.F.);
#318=ADVANCED_FACE('',(#298),#17,.T.);
#319=ADVANCED_FACE('',(#299),#310,.F.);
#320=ADVANCED_FACE('',(#300),#18,.F.);
#321=ADVANCED_FACE('',(#301),#19,.F.);
#322=ADVANCED_FACE('',(#302),#20,.T.);
#323=ADVANCED_FACE('',(#303),#311,.F.);
#324=ADVANCED_FACE('',(#304),#21,.F.);
#325=ADVANCED_FACE('',(#305),#22,.F.);
#326=ADVANCED_FACE('',(#306),#23,.T.);
#327=ADVANCED_FACE('',(#307),#24,.T.);
#328=ADVANCED_FACE('',(#308),#25,.F.);
#329=CLOSED_SHELL('',(#312,#313,#314,#315,#316,#317,#318,#319,#320,#321,
#322,#323,#324,#325,#326,#327,#328));
#330=STYLED_ITEM('',(#331),#338);
#331=PRESENTATION_STYLE_ASSIGNMENT((#332));
#332=SURFACE_STYLE_USAGE(.BOTH.,#333);
#333=SURFACE_SIDE_STYLE('',(#334));
#334=SURFACE_STYLE_FILL_AREA(#335);
#335=FILL_AREA_STYLE('',(#336));
#336=FILL_AREA_STYLE_COLOUR('',#337);
#337=COLOUR_RGB('',0.917647058823529,0.917647058823529,0.917647058823529);
#338=MANIFOLD_SOLID_BREP('DSCH024-E062',#329);
#339=SHAPE_DEFINITION_REPRESENTATION(#551,#340);
#340=SHAPE_REPRESENTATION('DSCH024-E062',(#341),#546);
#341=AXIS2_PLACEMENT_3D('',#452,#365,#366);
#342=AXIS2_PLACEMENT_3D('',#453,#367,#368);
#343=AXIS2_PLACEMENT_3D('',#454,#369,#370);
#344=AXIS2_PLACEMENT_3D('',#459,#372,#373);
#345=AXIS2_PLACEMENT_3D('',#462,#375,#376);
#346=AXIS2_PLACEMENT_3D('',#468,#380,#381);
#347=AXIS2_PLACEMENT_3D('',#474,#385,#386);
#348=AXIS2_PLACEMENT_3D('',#480,#390,#391);
#349=AXIS2_PLACEMENT_3D('',#486,#395,#396);
#350=AXIS2_PLACEMENT_3D('',#492,#400,#401);
#351=AXIS2_PLACEMENT_3D('',#498,#405,#406);
#352=AXIS2_PLACEMENT_3D('',#499,#407,#408);
#353=AXIS2_PLACEMENT_3D('',#503,#410,#411);
#354=AXIS2_PLACEMENT_3D('',#504,#412,#413);
#355=AXIS2_PLACEMENT_3D('',#510,#417,#418);
#356=AXIS2_PLACEMENT_3D('',#516,#422,#423);
#357=AXIS2_PLACEMENT_3D('',#522,#427,#428);
#358=AXIS2_PLACEMENT_3D('',#523,#429,#430);
#359=AXIS2_PLACEMENT_3D('',#527,#432,#433);
#360=AXIS2_PLACEMENT_3D('',#528,#434,#435);
#361=AXIS2_PLACEMENT_3D('',#534,#439,#440);
#362=AXIS2_PLACEMENT_3D('',#540,#444,#445);
#363=AXIS2_PLACEMENT_3D('',#543,#448,#449);
#364=AXIS2_PLACEMENT_3D('',#544,#450,#451);
#365=DIRECTION('',(0.,0.,1.));
#366=DIRECTION('',(1.,0.,0.));
#367=DIRECTION('',(0.,0.,-1.));
#368=DIRECTION('',(-1.,0.,0.));
#369=DIRECTION('',(0.,0.,1.));
#370=DIRECTION('',(1.,0.,0.));
#371=DIRECTION('',(0.,0.,-1.));
#372=DIRECTION('',(0.,0.,1.));
#373=DIRECTION('',(1.,0.,0.));
#374=DIRECTION('',(0.,0.,-1.));
#375=DIRECTION('',(-1.,0.,0.));
#376=DIRECTION('',(0.,0.,1.));
#377=DIRECTION('',(0.,1.,0.));
#378=DIRECTION('',(0.,0.,-1.));
#379=DIRECTION('',(0.,1.,0.));
#380=DIRECTION('',(0.,-1.,0.));
#381=DIRECTION('',(0.,0.,-1.));
#382=DIRECTION('',(-1.,0.,0.));
#383=DIRECTION('',(0.,0.,-1.));
#384=DIRECTION('',(-1.,0.,0.));
#385=DIRECTION('',(-1.,1.10155161034849E-16,0.));
#386=DIRECTION('',(-1.10155161034849E-16,-1.,0.));
#387=DIRECTION('',(1.10155161034849E-16,1.,0.));
#388=DIRECTION('',(0.,0.,-1.));
#389=DIRECTION('',(1.10155161034849E-16,1.,0.));
#390=DIRECTION('',(9.10615997888088E-17,-1.,0.));
#391=DIRECTION('',(1.,9.10615997888088E-17,0.));
#392=DIRECTION('',(-1.,-9.10615997888088E-17,0.));
#393=DIRECTION('',(0.,0.,-1.));
#394=DIRECTION('',(-1.,-9.10615997888088E-17,0.));
#395=DIRECTION('',(-1.,0.,0.));
#396=DIRECTION('',(0.,0.,1.));
#397=DIRECTION('',(0.,1.,0.));
#398=DIRECTION('',(0.,0.,-1.));
#399=DIRECTION('',(0.,1.,0.));
#400=DIRECTION('',(0.,1.,0.));
#401=DIRECTION('',(0.,0.,1.));
#402=DIRECTION('',(1.,0.,0.));
#403=DIRECTION('',(0.,0.,-1.));
#404=DIRECTION('',(1.,0.,0.));
#405=DIRECTION('',(0.,0.,-1.));
#406=DIRECTION('',(-1.,0.,0.));
#407=DIRECTION('',(0.,0.,1.));
#408=DIRECTION('',(1.,0.,0.));
#409=DIRECTION('',(0.,0.,-1.));
#410=DIRECTION('',(0.,0.,1.));
#411=DIRECTION('',(1.,0.,0.));
#412=DIRECTION('',(-0.707106781186548,0.707106781186548,0.));
#413=DIRECTION('',(-0.707106781186548,-0.707106781186548,0.));
#414=DIRECTION('',(0.707106781186547,0.707106781186548,0.));
#415=DIRECTION('',(0.,0.,-1.));
#416=DIRECTION('',(0.707106781186547,0.707106781186548,0.));
#417=DIRECTION('',(-1.,0.,0.));
#418=DIRECTION('',(0.,0.,1.));
#419=DIRECTION('',(0.,1.,0.));
#420=DIRECTION('',(0.,0.,-1.));
#421=DIRECTION('',(0.,1.,0.));
#422=DIRECTION('',(-0.707106781186548,0.707106781186547,0.));
#423=DIRECTION('',(-0.707106781186547,-0.707106781186548,0.));
#424=DIRECTION('',(0.707106781186547,0.707106781186548,0.));
#425=DIRECTION('',(0.,0.,-1.));
#426=DIRECTION('',(0.707106781186547,0.707106781186548,0.));
#427=DIRECTION('',(0.,0.,-1.));
#428=DIRECTION('',(-1.,0.,0.));
#429=DIRECTION('',(0.,0.,1.));
#430=DIRECTION('',(1.,0.,0.));
#431=DIRECTION('',(0.,0.,-1.));
#432=DIRECTION('',(0.,0.,1.));
#433=DIRECTION('',(1.,0.,0.));
#434=DIRECTION('',(-0.707106781186548,0.707106781186548,0.));
#435=DIRECTION('',(-0.707106781186548,-0.707106781186548,0.));
#436=DIRECTION('',(0.707106781186548,0.707106781186548,0.));
#437=DIRECTION('',(0.,0.,-1.));
#438=DIRECTION('',(0.707106781186548,0.707106781186548,0.));
#439=DIRECTION('',(0.,-1.,0.));
#440=DIRECTION('',(0.,0.,-1.));
#441=DIRECTION('',(-1.,0.,0.));
#442=DIRECTION('',(0.,0.,-1.));
#443=DIRECTION('',(-1.,0.,0.));
#444=DIRECTION('',(-0.707106781186548,0.707106781186547,0.));
#445=DIRECTION('',(-0.707106781186547,-0.707106781186548,0.));
#446=DIRECTION('',(0.707106781186547,0.707106781186548,0.));
#447=DIRECTION('',(0.707106781186547,0.707106781186548,0.));
#448=DIRECTION('',(0.,0.,1.));
#449=DIRECTION('',(1.,0.,0.));
#450=DIRECTION('',(0.,0.,1.));
#451=DIRECTION('',(1.,0.,0.));
#452=CARTESIAN_POINT('',(0.,0.,0.));
#453=CARTESIAN_POINT('',(-0.012446,0.009398,0.0015748));
#454=CARTESIAN_POINT('',(-0.012446,0.009398,0.));
#455=CARTESIAN_POINT('',(-0.017526,0.009398,0.));
#456=CARTESIAN_POINT('',(-0.00885389755157234,0.00580589755157233,0.));
#457=CARTESIAN_POINT('',(-0.017526,0.009398,0.0015748));
#458=CARTESIAN_POINT('',(-0.017526,0.009398,0.0015748));
#459=CARTESIAN_POINT('',(-0.012446,0.009398,0.0015748));
#460=CARTESIAN_POINT('',(-0.00885389755157234,0.00580589755157233,0.0015748));
#461=CARTESIAN_POINT('',(-0.00885389755157234,0.00580589755157233,0.0015748));
#462=CARTESIAN_POINT('',(-0.017526,0.012573,0.0015748));
#463=CARTESIAN_POINT('',(-0.017526,0.012573,0.));
#464=CARTESIAN_POINT('',(-0.017526,0.015748,0.));
#465=CARTESIAN_POINT('',(-0.017526,0.015748,0.0015748));
#466=CARTESIAN_POINT('',(-0.017526,0.015748,0.0015748));
#467=CARTESIAN_POINT('',(-0.017526,0.012573,0.0015748));
#468=CARTESIAN_POINT('',(-0.018288,0.015748,0.0015748));
#469=CARTESIAN_POINT('',(-0.018288,0.015748,0.));
#470=CARTESIAN_POINT('',(-0.01905,0.015748,0.));
#471=CARTESIAN_POINT('',(-0.01905,0.015748,0.0015748));
#472=CARTESIAN_POINT('',(-0.01905,0.015748,0.0015748));
#473=CARTESIAN_POINT('',(-0.018288,0.015748,0.0015748));
#474=CARTESIAN_POINT('',(-0.01905,3.46944695195361E-18,0.0015748));
#475=CARTESIAN_POINT('',(-0.01905,3.46944695195361E-18,0.));
#476=CARTESIAN_POINT('',(-0.01905,-0.015748,0.));
#477=CARTESIAN_POINT('',(-0.01905,-0.015748,0.0015748));
#478=CARTESIAN_POINT('',(-0.01905,-0.015748,0.0015748));
#479=CARTESIAN_POINT('',(-0.01905,3.46944695195361E-18,0.0015748));
#480=CARTESIAN_POINT('',(0.,-0.015748,0.0015748));
#481=CARTESIAN_POINT('',(0.,-0.015748,0.));
#482=CARTESIAN_POINT('',(0.01905,-0.015748,0.));
#483=CARTESIAN_POINT('',(0.01905,-0.015748,0.0015748));
#484=CARTESIAN_POINT('',(0.01905,-0.015748,0.0015748));
#485=CARTESIAN_POINT('',(0.,-0.015748,0.0015748));
#486=CARTESIAN_POINT('',(0.01905,-0.015113,0.0015748));
#487=CARTESIAN_POINT('',(0.01905,-0.015113,0.));
#488=CARTESIAN_POINT('',(0.01905,-0.014478,0.));
#489=CARTESIAN_POINT('',(0.01905,-0.014478,0.0015748));
#490=CARTESIAN_POINT('',(0.01905,-0.014478,0.0015748));
#491=CARTESIAN_POINT('',(0.01905,-0.015113,0.0015748));
#492=CARTESIAN_POINT('',(0.015748,-0.014478,0.0015748));
#493=CARTESIAN_POINT('',(0.015748,-0.014478,0.));
#494=CARTESIAN_POINT('',(0.012446,-0.014478,0.));
#495=CARTESIAN_POINT('',(0.012446,-0.014478,0.0015748));
#496=CARTESIAN_POINT('',(0.012446,-0.014478,0.0015748));
#497=CARTESIAN_POINT('',(0.015748,-0.014478,0.0015748));
#498=CARTESIAN_POINT('',(0.012446,-0.009398,0.0015748));
#499=CARTESIAN_POINT('',(0.012446,-0.009398,0.));
#500=CARTESIAN_POINT('',(0.00885389755157233,-0.00580589755157234,0.));
#501=CARTESIAN_POINT('',(0.00885389755157233,-0.00580589755157234,0.0015748));
#502=CARTESIAN_POINT('',(0.00885389755157233,-0.00580589755157234,0.0015748));
#503=CARTESIAN_POINT('',(0.012446,-0.009398,0.0015748));
#504=CARTESIAN_POINT('',(0.0139519487757862,-0.0007078463273585,0.0015748));
#505=CARTESIAN_POINT('',(0.0139519487757862,-0.0007078463273585,0.));
#506=CARTESIAN_POINT('',(0.01905,0.00439020489685534,0.));
#507=CARTESIAN_POINT('',(0.01905,0.00439020489685534,0.0015748));
#508=CARTESIAN_POINT('',(0.01905,0.00439020489685534,0.0015748));
#509=CARTESIAN_POINT('',(0.0139519487757862,-0.0007078463273585,0.0015748));
#510=CARTESIAN_POINT('',(0.01905,0.008128,0.0015748));
#511=CARTESIAN_POINT('',(0.01905,0.008128,0.));
#512=CARTESIAN_POINT('',(0.01905,0.0118657951031447,0.));
#513=CARTESIAN_POINT('',(0.01905,0.0118657951031447,0.0015748));
#514=CARTESIAN_POINT('',(0.01905,0.0118657951031447,0.0015748));
#515=CARTESIAN_POINT('',(0.01905,0.008128,0.0015748));
#516=CARTESIAN_POINT('',(0.0113210512242138,0.00413684632735851,0.0015748));
#517=CARTESIAN_POINT('',(0.0113210512242138,0.00413684632735851,0.));
#518=CARTESIAN_POINT('',(0.00359210244842767,-0.00359210244842766,0.));
#519=CARTESIAN_POINT('',(0.00359210244842767,-0.00359210244842766,0.0015748));
#520=CARTESIAN_POINT('',(0.00359210244842767,-0.00359210244842766,0.0015748));
#521=CARTESIAN_POINT('',(0.0113210512242138,0.00413684632735851,0.0015748));
#522=CARTESIAN_POINT('',(6.50521303491303E-19,6.50521303491303E-19,0.0015748));
#523=CARTESIAN_POINT('',(6.50521303491303E-19,6.50521303491303E-19,0.));
#524=CARTESIAN_POINT('',(-0.00359210244842766,0.00359210244842767,0.));
#525=CARTESIAN_POINT('',(-0.00359210244842766,0.00359210244842767,0.0015748));
#526=CARTESIAN_POINT('',(-0.00359210244842766,0.00359210244842767,0.0015748));
#527=CARTESIAN_POINT('',(6.50521303491303E-19,6.50521303491303E-19,0.0015748));
#528=CARTESIAN_POINT('',(0.0024858463273585,0.00967005122421383,0.0015748));
#529=CARTESIAN_POINT('',(0.0024858463273585,0.00967005122421383,0.));
#530=CARTESIAN_POINT('',(0.00856379510314468,0.015748,0.));
#531=CARTESIAN_POINT('',(0.00856379510314468,0.015748,0.0015748));
#532=CARTESIAN_POINT('',(0.00856379510314468,0.015748,0.0015748));
#533=CARTESIAN_POINT('',(0.0024858463273585,0.00967005122421383,0.0015748));
#534=CARTESIAN_POINT('',(0.004826,0.015748,0.0015748));
#535=CARTESIAN_POINT('',(0.004826,0.015748,0.));
#536=CARTESIAN_POINT('',(0.00108820489685532,0.015748,0.));
#537=CARTESIAN_POINT('',(0.00108820489685532,0.015748,0.0015748));
#538=CARTESIAN_POINT('',(0.00108820489685532,0.015748,0.0015748));
#539=CARTESIAN_POINT('',(0.004826,0.015748,0.0015748));
#540=CARTESIAN_POINT('',(-0.00388284632735851,0.0107769487757862,0.0015748));
#541=CARTESIAN_POINT('',(-0.00388284632735851,0.0107769487757862,0.));
#542=CARTESIAN_POINT('',(-0.00388284632735851,0.0107769487757862,0.0015748));
#543=CARTESIAN_POINT('',(0.,3.46944695195361E-18,0.0015748));
#544=CARTESIAN_POINT('',(0.,3.46944695195361E-18,0.));
#545=MECHANICAL_DESIGN_GEOMETRIC_PRESENTATION_REPRESENTATION('',(#330),
#546);
#546=(
GEOMETRIC_REPRESENTATION_CONTEXT(3)
GLOBAL_UNCERTAINTY_ASSIGNED_CONTEXT((#547))
GLOBAL_UNIT_ASSIGNED_CONTEXT((#550,#549,#548))
REPRESENTATION_CONTEXT('DSCH024-E062','TOP_LEVEL_ASSEMBLY_PART')
);
#547=UNCERTAINTY_MEASURE_WITH_UNIT(LENGTH_MEASURE(5.E-6),#550,
'DISTANCE_ACCURACY_VALUE','Maximum Tolerance applied to model');
#548=(
NAMED_UNIT(*)
SI_UNIT($,.STERADIAN.)
SOLID_ANGLE_UNIT()
);
#549=(
NAMED_UNIT(*)
PLANE_ANGLE_UNIT()
SI_UNIT($,.RADIAN.)
);
#550=(
LENGTH_UNIT()
NAMED_UNIT(*)
SI_UNIT($,.METRE.)
);
#551=PRODUCT_DEFINITION_SHAPE('','',#552);
#552=PRODUCT_DEFINITION('','',#554,#553);
#553=PRODUCT_DEFINITION_CONTEXT('',#560,'design');
#554=PRODUCT_DEFINITION_FORMATION_WITH_SPECIFIED_SOURCE('','',#556,
 .NOT_KNOWN.);
#555=PRODUCT_RELATED_PRODUCT_CATEGORY('','',(#556));
#556=PRODUCT('DSCH024-E062','DSCH024-E062','DSCH024-E062',(#558));
#557=PRODUCT_CATEGORY('','');
#558=PRODUCT_CONTEXT('',#560,'mechanical');
#559=APPLICATION_PROTOCOL_DEFINITION('international standard',
'ap242_managed_model_based_3d_engineering',2011,#560);
#560=APPLICATION_CONTEXT('managed model based 3d engineering');
ENDSEC;
END-ISO-10303-21;
