ISO-10303-21;
HEADER;
/* Generated by software containing ST-Developer
 * from STEP Tools, Inc. (www.steptools.com) 
 */
/* OPTION: using custom renumber hook */

FILE_DESCRIPTION(
/* description */ ('STEP AP242',
'CAx-IF Rec.Pracs.---Representation and Presentation of Product Manufa
cturing Information (PMI)---4.0---2014-10-13',
'CAx-IF Rec.Pracs.---3D Tessellated Geometry---0.4---2014-09-14','2;1'),

/* implementation_level */ '2;1');

FILE_NAME(
/* name */ '62740ec101915b3d84e6207c',
/* time_stamp */ '2022-05-05T17:52:01+00:00',
/* author */ (''),
/* organization */ (''),
/* preprocessor_version */ 'ST-DEVELOPER v18.101',
/* originating_system */ '  ',
/* authorisation */ '  ');

FILE_SCHEMA (('AP242_MANAGED_MODEL_BASED_3D_ENGINEERING_MIM_LF { 1 0 10303 442 1 1 4 }'));
ENDSEC;

DATA;
#10=SHAPE_REPRESENTATION_RELATIONSHIP('','',#311,#11);
#11=ADVANCED_BREP_SHAPE_REPRESENTATION('',(#309),#521);
#12=CIRCLE('',#315,0.00525);
#13=CIRCLE('',#316,0.00525);
#14=CIRCLE('',#319,0.0015);
#15=CIRCLE('',#320,0.0015);
#16=CIRCLE('',#323,0.0015);
#17=CIRCLE('',#324,0.0015);
#18=CIRCLE('',#327,0.0015);
#19=CIRCLE('',#328,0.0015);
#20=CIRCLE('',#331,0.0015);
#21=CIRCLE('',#332,0.0015);
#22=CIRCLE('',#335,0.0015);
#23=CIRCLE('',#336,0.0015);
#24=CIRCLE('',#339,0.0015);
#25=CIRCLE('',#340,0.0015);
#26=CYLINDRICAL_SURFACE('',#314,0.00525);
#27=CYLINDRICAL_SURFACE('',#318,0.0015);
#28=CYLINDRICAL_SURFACE('',#322,0.0015);
#29=CYLINDRICAL_SURFACE('',#326,0.0015);
#30=CYLINDRICAL_SURFACE('',#330,0.0015);
#31=CYLINDRICAL_SURFACE('',#334,0.0015);
#32=CYLINDRICAL_SURFACE('',#338,0.0015);
#33=ORIENTED_EDGE('',*,*,#117,.F.);
#34=ORIENTED_EDGE('',*,*,#118,.F.);
#35=ORIENTED_EDGE('',*,*,#119,.T.);
#36=ORIENTED_EDGE('',*,*,#120,.T.);
#37=ORIENTED_EDGE('',*,*,#121,.F.);
#38=ORIENTED_EDGE('',*,*,#122,.F.);
#39=ORIENTED_EDGE('',*,*,#123,.T.);
#40=ORIENTED_EDGE('',*,*,#118,.T.);
#41=ORIENTED_EDGE('',*,*,#124,.T.);
#42=ORIENTED_EDGE('',*,*,#125,.F.);
#43=ORIENTED_EDGE('',*,*,#126,.F.);
#44=ORIENTED_EDGE('',*,*,#122,.T.);
#45=ORIENTED_EDGE('',*,*,#127,.T.);
#46=ORIENTED_EDGE('',*,*,#128,.F.);
#47=ORIENTED_EDGE('',*,*,#129,.F.);
#48=ORIENTED_EDGE('',*,*,#125,.T.);
#49=ORIENTED_EDGE('',*,*,#130,.T.);
#50=ORIENTED_EDGE('',*,*,#131,.F.);
#51=ORIENTED_EDGE('',*,*,#132,.F.);
#52=ORIENTED_EDGE('',*,*,#128,.T.);
#53=ORIENTED_EDGE('',*,*,#133,.T.);
#54=ORIENTED_EDGE('',*,*,#134,.F.);
#55=ORIENTED_EDGE('',*,*,#135,.F.);
#56=ORIENTED_EDGE('',*,*,#131,.T.);
#57=ORIENTED_EDGE('',*,*,#136,.F.);
#58=ORIENTED_EDGE('',*,*,#137,.F.);
#59=ORIENTED_EDGE('',*,*,#138,.T.);
#60=ORIENTED_EDGE('',*,*,#134,.T.);
#61=ORIENTED_EDGE('',*,*,#139,.T.);
#62=ORIENTED_EDGE('',*,*,#140,.F.);
#63=ORIENTED_EDGE('',*,*,#141,.F.);
#64=ORIENTED_EDGE('',*,*,#137,.T.);
#65=ORIENTED_EDGE('',*,*,#142,.F.);
#66=ORIENTED_EDGE('',*,*,#143,.F.);
#67=ORIENTED_EDGE('',*,*,#144,.T.);
#68=ORIENTED_EDGE('',*,*,#140,.T.);
#69=ORIENTED_EDGE('',*,*,#145,.T.);
#70=ORIENTED_EDGE('',*,*,#146,.F.);
#71=ORIENTED_EDGE('',*,*,#147,.F.);
#72=ORIENTED_EDGE('',*,*,#143,.T.);
#73=ORIENTED_EDGE('',*,*,#148,.T.);
#74=ORIENTED_EDGE('',*,*,#149,.F.);
#75=ORIENTED_EDGE('',*,*,#150,.F.);
#76=ORIENTED_EDGE('',*,*,#146,.T.);
#77=ORIENTED_EDGE('',*,*,#151,.T.);
#78=ORIENTED_EDGE('',*,*,#152,.F.);
#79=ORIENTED_EDGE('',*,*,#153,.F.);
#80=ORIENTED_EDGE('',*,*,#149,.T.);
#81=ORIENTED_EDGE('',*,*,#154,.T.);
#82=ORIENTED_EDGE('',*,*,#155,.F.);
#83=ORIENTED_EDGE('',*,*,#156,.F.);
#84=ORIENTED_EDGE('',*,*,#152,.T.);
#85=ORIENTED_EDGE('',*,*,#157,.T.);
#86=ORIENTED_EDGE('',*,*,#120,.F.);
#87=ORIENTED_EDGE('',*,*,#158,.F.);
#88=ORIENTED_EDGE('',*,*,#155,.T.);
#89=ORIENTED_EDGE('',*,*,#119,.F.);
#90=ORIENTED_EDGE('',*,*,#123,.F.);
#91=ORIENTED_EDGE('',*,*,#126,.T.);
#92=ORIENTED_EDGE('',*,*,#129,.T.);
#93=ORIENTED_EDGE('',*,*,#132,.T.);
#94=ORIENTED_EDGE('',*,*,#135,.T.);
#95=ORIENTED_EDGE('',*,*,#138,.F.);
#96=ORIENTED_EDGE('',*,*,#141,.T.);
#97=ORIENTED_EDGE('',*,*,#144,.F.);
#98=ORIENTED_EDGE('',*,*,#147,.T.);
#99=ORIENTED_EDGE('',*,*,#150,.T.);
#100=ORIENTED_EDGE('',*,*,#153,.T.);
#101=ORIENTED_EDGE('',*,*,#156,.T.);
#102=ORIENTED_EDGE('',*,*,#158,.T.);
#103=ORIENTED_EDGE('',*,*,#117,.T.);
#104=ORIENTED_EDGE('',*,*,#157,.F.);
#105=ORIENTED_EDGE('',*,*,#154,.F.);
#106=ORIENTED_EDGE('',*,*,#151,.F.);
#107=ORIENTED_EDGE('',*,*,#148,.F.);
#108=ORIENTED_EDGE('',*,*,#145,.F.);
#109=ORIENTED_EDGE('',*,*,#142,.T.);
#110=ORIENTED_EDGE('',*,*,#139,.F.);
#111=ORIENTED_EDGE('',*,*,#136,.T.);
#112=ORIENTED_EDGE('',*,*,#133,.F.);
#113=ORIENTED_EDGE('',*,*,#130,.F.);
#114=ORIENTED_EDGE('',*,*,#127,.F.);
#115=ORIENTED_EDGE('',*,*,#124,.F.);
#116=ORIENTED_EDGE('',*,*,#121,.T.);
#117=EDGE_CURVE('',#159,#160,#187,.T.);
#118=EDGE_CURVE('',#161,#159,#188,.T.);
#119=EDGE_CURVE('',#161,#162,#189,.T.);
#120=EDGE_CURVE('',#162,#160,#190,.T.);
#121=EDGE_CURVE('',#163,#159,#12,.T.);
#122=EDGE_CURVE('',#164,#163,#191,.T.);
#123=EDGE_CURVE('',#164,#161,#13,.T.);
#124=EDGE_CURVE('',#163,#165,#192,.T.);
#125=EDGE_CURVE('',#166,#165,#193,.T.);
#126=EDGE_CURVE('',#164,#166,#194,.T.);
#127=EDGE_CURVE('',#165,#167,#14,.T.);
#128=EDGE_CURVE('',#168,#167,#195,.T.);
#129=EDGE_CURVE('',#166,#168,#15,.T.);
#130=EDGE_CURVE('',#167,#169,#196,.T.);
#131=EDGE_CURVE('',#170,#169,#197,.T.);
#132=EDGE_CURVE('',#168,#170,#198,.T.);
#133=EDGE_CURVE('',#169,#171,#16,.T.);
#134=EDGE_CURVE('',#172,#171,#199,.T.);
#135=EDGE_CURVE('',#170,#172,#17,.T.);
#136=EDGE_CURVE('',#173,#171,#200,.T.);
#137=EDGE_CURVE('',#174,#173,#201,.T.);
#138=EDGE_CURVE('',#174,#172,#202,.T.);
#139=EDGE_CURVE('',#173,#175,#18,.T.);
#140=EDGE_CURVE('',#176,#175,#203,.T.);
#141=EDGE_CURVE('',#174,#176,#19,.T.);
#142=EDGE_CURVE('',#177,#175,#204,.T.);
#143=EDGE_CURVE('',#178,#177,#205,.T.);
#144=EDGE_CURVE('',#178,#176,#206,.T.);
#145=EDGE_CURVE('',#177,#179,#20,.T.);
#146=EDGE_CURVE('',#180,#179,#207,.T.);
#147=EDGE_CURVE('',#178,#180,#21,.T.);
#148=EDGE_CURVE('',#179,#181,#208,.T.);
#149=EDGE_CURVE('',#182,#181,#209,.T.);
#150=EDGE_CURVE('',#180,#182,#210,.T.);
#151=EDGE_CURVE('',#181,#183,#22,.T.);
#152=EDGE_CURVE('',#184,#183,#211,.T.);
#153=EDGE_CURVE('',#182,#184,#23,.T.);
#154=EDGE_CURVE('',#183,#185,#212,.T.);
#155=EDGE_CURVE('',#186,#185,#213,.T.);
#156=EDGE_CURVE('',#184,#186,#214,.T.);
#157=EDGE_CURVE('',#185,#160,#24,.T.);
#158=EDGE_CURVE('',#186,#162,#25,.T.);
#159=VERTEX_POINT('',#436);
#160=VERTEX_POINT('',#437);
#161=VERTEX_POINT('',#439);
#162=VERTEX_POINT('',#441);
#163=VERTEX_POINT('',#445);
#164=VERTEX_POINT('',#447);
#165=VERTEX_POINT('',#451);
#166=VERTEX_POINT('',#453);
#167=VERTEX_POINT('',#457);
#168=VERTEX_POINT('',#459);
#169=VERTEX_POINT('',#463);
#170=VERTEX_POINT('',#465);
#171=VERTEX_POINT('',#469);
#172=VERTEX_POINT('',#471);
#173=VERTEX_POINT('',#475);
#174=VERTEX_POINT('',#477);
#175=VERTEX_POINT('',#481);
#176=VERTEX_POINT('',#483);
#177=VERTEX_POINT('',#487);
#178=VERTEX_POINT('',#489);
#179=VERTEX_POINT('',#493);
#180=VERTEX_POINT('',#495);
#181=VERTEX_POINT('',#499);
#182=VERTEX_POINT('',#501);
#183=VERTEX_POINT('',#505);
#184=VERTEX_POINT('',#507);
#185=VERTEX_POINT('',#511);
#186=VERTEX_POINT('',#513);
#187=LINE('',#435,#215);
#188=LINE('',#438,#216);
#189=LINE('',#440,#217);
#190=LINE('',#442,#218);
#191=LINE('',#446,#219);
#192=LINE('',#450,#220);
#193=LINE('',#452,#221);
#194=LINE('',#454,#222);
#195=LINE('',#458,#223);
#196=LINE('',#462,#224);
#197=LINE('',#464,#225);
#198=LINE('',#466,#226);
#199=LINE('',#470,#227);
#200=LINE('',#474,#228);
#201=LINE('',#476,#229);
#202=LINE('',#478,#230);
#203=LINE('',#482,#231);
#204=LINE('',#486,#232);
#205=LINE('',#488,#233);
#206=LINE('',#490,#234);
#207=LINE('',#494,#235);
#208=LINE('',#498,#236);
#209=LINE('',#500,#237);
#210=LINE('',#502,#238);
#211=LINE('',#506,#239);
#212=LINE('',#510,#240);
#213=LINE('',#512,#241);
#214=LINE('',#514,#242);
#215=VECTOR('',#347,1.);
#216=VECTOR('',#348,1.);
#217=VECTOR('',#349,1.);
#218=VECTOR('',#350,1.);
#219=VECTOR('',#355,1.);
#220=VECTOR('',#360,1.);
#221=VECTOR('',#361,1.);
#222=VECTOR('',#362,1.);
#223=VECTOR('',#367,1.);
#224=VECTOR('',#372,1.);
#225=VECTOR('',#373,1.);
#226=VECTOR('',#374,1.);
#227=VECTOR('',#379,1.);
#228=VECTOR('',#384,1.);
#229=VECTOR('',#385,1.);
#230=VECTOR('',#386,1.);
#231=VECTOR('',#391,1.);
#232=VECTOR('',#396,1.);
#233=VECTOR('',#397,1.);
#234=VECTOR('',#398,1.);
#235=VECTOR('',#403,1.);
#236=VECTOR('',#408,1.);
#237=VECTOR('',#409,1.);
#238=VECTOR('',#410,1.);
#239=VECTOR('',#415,1.);
#240=VECTOR('',#420,1.);
#241=VECTOR('',#421,1.);
#242=VECTOR('',#422,1.);
#243=EDGE_LOOP('',(#33,#34,#35,#36));
#244=EDGE_LOOP('',(#37,#38,#39,#40));
#245=EDGE_LOOP('',(#41,#42,#43,#44));
#246=EDGE_LOOP('',(#45,#46,#47,#48));
#247=EDGE_LOOP('',(#49,#50,#51,#52));
#248=EDGE_LOOP('',(#53,#54,#55,#56));
#249=EDGE_LOOP('',(#57,#58,#59,#60));
#250=EDGE_LOOP('',(#61,#62,#63,#64));
#251=EDGE_LOOP('',(#65,#66,#67,#68));
#252=EDGE_LOOP('',(#69,#70,#71,#72));
#253=EDGE_LOOP('',(#73,#74,#75,#76));
#254=EDGE_LOOP('',(#77,#78,#79,#80));
#255=EDGE_LOOP('',(#81,#82,#83,#84));
#256=EDGE_LOOP('',(#85,#86,#87,#88));
#257=EDGE_LOOP('',(#89,#90,#91,#92,#93,#94,#95,#96,#97,#98,#99,#100,#101,
#102));
#258=EDGE_LOOP('',(#103,#104,#105,#106,#107,#108,#109,#110,#111,#112,#113,
#114,#115,#116));
#259=FACE_BOUND('',#243,.T.);
#260=FACE_BOUND('',#244,.T.);
#261=FACE_BOUND('',#245,.T.);
#262=FACE_BOUND('',#246,.T.);
#263=FACE_BOUND('',#247,.T.);
#264=FACE_BOUND('',#248,.T.);
#265=FACE_BOUND('',#249,.T.);
#266=FACE_BOUND('',#250,.T.);
#267=FACE_BOUND('',#251,.T.);
#268=FACE_BOUND('',#252,.T.);
#269=FACE_BOUND('',#253,.T.);
#270=FACE_BOUND('',#254,.T.);
#271=FACE_BOUND('',#255,.T.);
#272=FACE_BOUND('',#256,.T.);
#273=FACE_BOUND('',#257,.T.);
#274=FACE_BOUND('',#258,.T.);
#275=PLANE('',#313);
#276=PLANE('',#317);
#277=PLANE('',#321);
#278=PLANE('',#325);
#279=PLANE('',#329);
#280=PLANE('',#333);
#281=PLANE('',#337);
#282=PLANE('',#341);
#283=PLANE('',#342);
#284=ADVANCED_FACE('',(#259),#275,.T.);
#285=ADVANCED_FACE('',(#260),#26,.F.);
#286=ADVANCED_FACE('',(#261),#276,.F.);
#287=ADVANCED_FACE('',(#262),#27,.T.);
#288=ADVANCED_FACE('',(#263),#277,.F.);
#289=ADVANCED_FACE('',(#264),#28,.T.);
#290=ADVANCED_FACE('',(#265),#278,.T.);
#291=ADVANCED_FACE('',(#266),#29,.T.);
#292=ADVANCED_FACE('',(#267),#279,.T.);
#293=ADVANCED_FACE('',(#268),#30,.T.);
#294=ADVANCED_FACE('',(#269),#280,.F.);
#295=ADVANCED_FACE('',(#270),#31,.T.);
#296=ADVANCED_FACE('',(#271),#281,.F.);
#297=ADVANCED_FACE('',(#272),#32,.T.);
#298=ADVANCED_FACE('',(#273),#282,.T.);
#299=ADVANCED_FACE('',(#274),#283,.F.);
#300=CLOSED_SHELL('',(#284,#285,#286,#287,#288,#289,#290,#291,#292,#293,
#294,#295,#296,#297,#298,#299));
#301=STYLED_ITEM('',(#302),#309);
#302=PRESENTATION_STYLE_ASSIGNMENT((#303));
#303=SURFACE_STYLE_USAGE(.BOTH.,#304);
#304=SURFACE_SIDE_STYLE('',(#305));
#305=SURFACE_STYLE_FILL_AREA(#306);
#306=FILL_AREA_STYLE('',(#307));
#307=FILL_AREA_STYLE_COLOUR('',#308);
#308=COLOUR_RGB('',0.917647058823529,0.917647058823529,0.917647058823529);
#309=MANIFOLD_SOLID_BREP('DSCH035-E015',#300);
#310=SHAPE_DEFINITION_REPRESENTATION(#526,#311);
#311=SHAPE_REPRESENTATION('DSCH035-E015',(#312),#521);
#312=AXIS2_PLACEMENT_3D('',#433,#343,#344);
#313=AXIS2_PLACEMENT_3D('',#434,#345,#346);
#314=AXIS2_PLACEMENT_3D('',#443,#351,#352);
#315=AXIS2_PLACEMENT_3D('',#444,#353,#354);
#316=AXIS2_PLACEMENT_3D('',#448,#356,#357);
#317=AXIS2_PLACEMENT_3D('',#449,#358,#359);
#318=AXIS2_PLACEMENT_3D('',#455,#363,#364);
#319=AXIS2_PLACEMENT_3D('',#456,#365,#366);
#320=AXIS2_PLACEMENT_3D('',#460,#368,#369);
#321=AXIS2_PLACEMENT_3D('',#461,#370,#371);
#322=AXIS2_PLACEMENT_3D('',#467,#375,#376);
#323=AXIS2_PLACEMENT_3D('',#468,#377,#378);
#324=AXIS2_PLACEMENT_3D('',#472,#380,#381);
#325=AXIS2_PLACEMENT_3D('',#473,#382,#383);
#326=AXIS2_PLACEMENT_3D('',#479,#387,#388);
#327=AXIS2_PLACEMENT_3D('',#480,#389,#390);
#328=AXIS2_PLACEMENT_3D('',#484,#392,#393);
#329=AXIS2_PLACEMENT_3D('',#485,#394,#395);
#330=AXIS2_PLACEMENT_3D('',#491,#399,#400);
#331=AXIS2_PLACEMENT_3D('',#492,#401,#402);
#332=AXIS2_PLACEMENT_3D('',#496,#404,#405);
#333=AXIS2_PLACEMENT_3D('',#497,#406,#407);
#334=AXIS2_PLACEMENT_3D('',#503,#411,#412);
#335=AXIS2_PLACEMENT_3D('',#504,#413,#414);
#336=AXIS2_PLACEMENT_3D('',#508,#416,#417);
#337=AXIS2_PLACEMENT_3D('',#509,#418,#419);
#338=AXIS2_PLACEMENT_3D('',#515,#423,#424);
#339=AXIS2_PLACEMENT_3D('',#516,#425,#426);
#340=AXIS2_PLACEMENT_3D('',#517,#427,#428);
#341=AXIS2_PLACEMENT_3D('',#518,#429,#430);
#342=AXIS2_PLACEMENT_3D('',#519,#431,#432);
#343=DIRECTION('',(0.,0.,1.));
#344=DIRECTION('',(1.,0.,0.));
#345=DIRECTION('',(-1.,0.,0.));
#346=DIRECTION('',(0.,0.,1.));
#347=DIRECTION('',(0.,1.,0.));
#348=DIRECTION('',(0.,0.,-1.));
#349=DIRECTION('',(0.,1.,0.));
#350=DIRECTION('',(0.,0.,-1.));
#351=DIRECTION('',(0.,0.,-1.));
#352=DIRECTION('',(-1.,0.,0.));
#353=DIRECTION('',(0.,0.,1.));
#354=DIRECTION('',(1.,0.,0.));
#355=DIRECTION('',(0.,0.,-1.));
#356=DIRECTION('',(0.,0.,1.));
#357=DIRECTION('',(1.,0.,0.));
#358=DIRECTION('',(-1.,0.,0.));
#359=DIRECTION('',(0.,0.,1.));
#360=DIRECTION('',(0.,1.,0.));
#361=DIRECTION('',(0.,0.,-1.));
#362=DIRECTION('',(0.,1.,0.));
#363=DIRECTION('',(0.,0.,-1.));
#364=DIRECTION('',(-1.,0.,0.));
#365=DIRECTION('',(0.,0.,1.));
#366=DIRECTION('',(1.,0.,0.));
#367=DIRECTION('',(0.,0.,-1.));
#368=DIRECTION('',(0.,0.,1.));
#369=DIRECTION('',(1.,0.,0.));
#370=DIRECTION('',(4.49410226937003E-15,-1.,0.));
#371=DIRECTION('',(1.,4.49410226937003E-15,0.));
#372=DIRECTION('',(-1.,-4.49410226937003E-15,0.));
#373=DIRECTION('',(0.,0.,-1.));
#374=DIRECTION('',(-1.,-4.49410226937003E-15,0.));
#375=DIRECTION('',(0.,0.,-1.));
#376=DIRECTION('',(-1.,0.,0.));
#377=DIRECTION('',(0.,0.,1.));
#378=DIRECTION('',(1.,0.,0.));
#379=DIRECTION('',(0.,0.,-1.));
#380=DIRECTION('',(0.,0.,1.));
#381=DIRECTION('',(1.,0.,0.));
#382=DIRECTION('',(-1.,0.,0.));
#383=DIRECTION('',(0.,0.,1.));
#384=DIRECTION('',(0.,1.,0.));
#385=DIRECTION('',(0.,0.,-1.));
#386=DIRECTION('',(0.,1.,0.));
#387=DIRECTION('',(0.,0.,-1.));
#388=DIRECTION('',(-1.,0.,0.));
#389=DIRECTION('',(0.,0.,1.));
#390=DIRECTION('',(1.,0.,0.));
#391=DIRECTION('',(0.,0.,-1.));
#392=DIRECTION('',(0.,0.,1.));
#393=DIRECTION('',(1.,0.,0.));
#394=DIRECTION('',(1.2154732875398E-16,-1.,0.));
#395=DIRECTION('',(1.,1.2154732875398E-16,0.));
#396=DIRECTION('',(-1.,-1.2154732875398E-16,0.));
#397=DIRECTION('',(0.,0.,-1.));
#398=DIRECTION('',(-1.,-1.2154732875398E-16,0.));
#399=DIRECTION('',(0.,0.,-1.));
#400=DIRECTION('',(-1.,0.,0.));
#401=DIRECTION('',(0.,0.,1.));
#402=DIRECTION('',(1.,0.,0.));
#403=DIRECTION('',(0.,0.,-1.));
#404=DIRECTION('',(0.,0.,1.));
#405=DIRECTION('',(1.,0.,0.));
#406=DIRECTION('',(-1.,0.,0.));
#407=DIRECTION('',(0.,0.,1.));
#408=DIRECTION('',(0.,1.,0.));
#409=DIRECTION('',(0.,0.,-1.));
#410=DIRECTION('',(0.,1.,0.));
#411=DIRECTION('',(0.,0.,-1.));
#412=DIRECTION('',(-1.,0.,0.));
#413=DIRECTION('',(0.,0.,1.));
#414=DIRECTION('',(1.,0.,0.));
#415=DIRECTION('',(0.,0.,-1.));
#416=DIRECTION('',(0.,0.,1.));
#417=DIRECTION('',(1.,0.,0.));
#418=DIRECTION('',(4.49410226936999E-15,-1.,0.));
#419=DIRECTION('',(1.,4.49410226936999E-15,0.));
#420=DIRECTION('',(-1.,-4.49410226936999E-15,0.));
#421=DIRECTION('',(0.,0.,-1.));
#422=DIRECTION('',(-1.,-4.49410226936999E-15,0.));
#423=DIRECTION('',(0.,0.,-1.));
#424=DIRECTION('',(-1.,0.,0.));
#425=DIRECTION('',(0.,0.,1.));
#426=DIRECTION('',(1.,0.,0.));
#427=DIRECTION('',(0.,0.,1.));
#428=DIRECTION('',(1.,0.,0.));
#429=DIRECTION('',(0.,0.,1.));
#430=DIRECTION('',(1.,0.,0.));
#431=DIRECTION('',(0.,0.,1.));
#432=DIRECTION('',(1.,0.,0.));
#433=CARTESIAN_POINT('',(0.,0.,0.));
#434=CARTESIAN_POINT('',(0.00525,0.003568,0.000381));
#435=CARTESIAN_POINT('',(0.00525,0.003568,0.));
#436=CARTESIAN_POINT('',(0.00525,-1.28587913910472E-18,0.));
#437=CARTESIAN_POINT('',(0.00525,0.007136,0.));
#438=CARTESIAN_POINT('',(0.00525,-1.28587913910472E-18,0.000381));
#439=CARTESIAN_POINT('',(0.00525,-1.28587913910472E-18,0.000381));
#440=CARTESIAN_POINT('',(0.00525,0.003568,0.000381));
#441=CARTESIAN_POINT('',(0.00525,0.007136,0.000381));
#442=CARTESIAN_POINT('',(0.00525,0.007136,0.000381));
#443=CARTESIAN_POINT('',(0.,-3.2146978477618E-19,0.000381));
#444=CARTESIAN_POINT('',(0.,-3.2146978477618E-19,0.));
#445=CARTESIAN_POINT('',(-0.00525,0.,0.));
#446=CARTESIAN_POINT('',(-0.00525,0.,0.000381));
#447=CARTESIAN_POINT('',(-0.00525,0.,0.000381));
#448=CARTESIAN_POINT('',(0.,-3.2146978477618E-19,0.000381));
#449=CARTESIAN_POINT('',(-0.00525,0.003568,0.000381));
#450=CARTESIAN_POINT('',(-0.00525,0.003568,0.));
#451=CARTESIAN_POINT('',(-0.00525,0.007136,0.));
#452=CARTESIAN_POINT('',(-0.00525,0.007136,0.000381));
#453=CARTESIAN_POINT('',(-0.00525,0.007136,0.000381));
#454=CARTESIAN_POINT('',(-0.00525,0.003568,0.000381));
#455=CARTESIAN_POINT('',(-0.00675,0.007136,0.000381));
#456=CARTESIAN_POINT('',(-0.00675,0.007136,0.));
#457=CARTESIAN_POINT('',(-0.00675,0.008636,0.));
#458=CARTESIAN_POINT('',(-0.00675,0.008636,0.000381));
#459=CARTESIAN_POINT('',(-0.00675,0.008636,0.000381));
#460=CARTESIAN_POINT('',(-0.00675,0.007136,0.000381));
#461=CARTESIAN_POINT('',(-0.006943,0.008636,0.000381));
#462=CARTESIAN_POINT('',(-0.006943,0.008636,0.));
#463=CARTESIAN_POINT('',(-0.007136,0.008636,0.));
#464=CARTESIAN_POINT('',(-0.007136,0.008636,0.000381));
#465=CARTESIAN_POINT('',(-0.007136,0.008636,0.000381));
#466=CARTESIAN_POINT('',(-0.006943,0.008636,0.000381));
#467=CARTESIAN_POINT('',(-0.007136,0.007136,0.000381));
#468=CARTESIAN_POINT('',(-0.007136,0.007136,0.));
#469=CARTESIAN_POINT('',(-0.008636,0.007136,0.));
#470=CARTESIAN_POINT('',(-0.008636,0.007136,0.000381));
#471=CARTESIAN_POINT('',(-0.008636,0.007136,0.000381));
#472=CARTESIAN_POINT('',(-0.007136,0.007136,0.000381));
#473=CARTESIAN_POINT('',(-0.008636,-1.7347234759768E-18,0.000381));
#474=CARTESIAN_POINT('',(-0.008636,-1.7347234759768E-18,0.));
#475=CARTESIAN_POINT('',(-0.008636,-0.007136,0.));
#476=CARTESIAN_POINT('',(-0.008636,-0.007136,0.000381));
#477=CARTESIAN_POINT('',(-0.008636,-0.007136,0.000381));
#478=CARTESIAN_POINT('',(-0.008636,-1.7347234759768E-18,0.000381));
#479=CARTESIAN_POINT('',(-0.007136,-0.007136,0.000381));
#480=CARTESIAN_POINT('',(-0.007136,-0.007136,0.));
#481=CARTESIAN_POINT('',(-0.007136,-0.008636,0.));
#482=CARTESIAN_POINT('',(-0.007136,-0.008636,0.000381));
#483=CARTESIAN_POINT('',(-0.007136,-0.008636,0.000381));
#484=CARTESIAN_POINT('',(-0.007136,-0.007136,0.000381));
#485=CARTESIAN_POINT('',(0.,-0.008636,0.000381));
#486=CARTESIAN_POINT('',(0.,-0.008636,0.));
#487=CARTESIAN_POINT('',(0.007136,-0.008636,0.));
#488=CARTESIAN_POINT('',(0.007136,-0.008636,0.000381));
#489=CARTESIAN_POINT('',(0.007136,-0.008636,0.000381));
#490=CARTESIAN_POINT('',(0.,-0.008636,0.000381));
#491=CARTESIAN_POINT('',(0.007136,-0.007136,0.000381));
#492=CARTESIAN_POINT('',(0.007136,-0.007136,0.));
#493=CARTESIAN_POINT('',(0.008636,-0.007136,0.));
#494=CARTESIAN_POINT('',(0.008636,-0.007136,0.000381));
#495=CARTESIAN_POINT('',(0.008636,-0.007136,0.000381));
#496=CARTESIAN_POINT('',(0.007136,-0.007136,0.000381));
#497=CARTESIAN_POINT('',(0.008636,0.,0.000381));
#498=CARTESIAN_POINT('',(0.008636,0.,0.));
#499=CARTESIAN_POINT('',(0.008636,0.007136,0.));
#500=CARTESIAN_POINT('',(0.008636,0.007136,0.000381));
#501=CARTESIAN_POINT('',(0.008636,0.007136,0.000381));
#502=CARTESIAN_POINT('',(0.008636,0.,0.000381));
#503=CARTESIAN_POINT('',(0.007136,0.007136,0.000381));
#504=CARTESIAN_POINT('',(0.007136,0.007136,0.));
#505=CARTESIAN_POINT('',(0.007136,0.008636,0.));
#506=CARTESIAN_POINT('',(0.007136,0.008636,0.000381));
#507=CARTESIAN_POINT('',(0.007136,0.008636,0.000381));
#508=CARTESIAN_POINT('',(0.007136,0.007136,0.000381));
#509=CARTESIAN_POINT('',(0.006943,0.008636,0.000381));
#510=CARTESIAN_POINT('',(0.006943,0.008636,0.));
#511=CARTESIAN_POINT('',(0.00675,0.008636,0.));
#512=CARTESIAN_POINT('',(0.00675,0.008636,0.000381));
#513=CARTESIAN_POINT('',(0.00675,0.008636,0.000381));
#514=CARTESIAN_POINT('',(0.006943,0.008636,0.000381));
#515=CARTESIAN_POINT('',(0.00675,0.007136,0.000381));
#516=CARTESIAN_POINT('',(0.00675,0.007136,0.));
#517=CARTESIAN_POINT('',(0.00675,0.007136,0.000381));
#518=CARTESIAN_POINT('',(0.,0.,0.000381));
#519=CARTESIAN_POINT('',(0.,0.,0.));
#520=MECHANICAL_DESIGN_GEOMETRIC_PRESENTATION_REPRESENTATION('',(#301),
#521);
#521=(
GEOMETRIC_REPRESENTATION_CONTEXT(3)
GLOBAL_UNCERTAINTY_ASSIGNED_CONTEXT((#522))
GLOBAL_UNIT_ASSIGNED_CONTEXT((#525,#524,#523))
REPRESENTATION_CONTEXT('DSCH035-E015','TOP_LEVEL_ASSEMBLY_PART')
);
#522=UNCERTAINTY_MEASURE_WITH_UNIT(LENGTH_MEASURE(5.E-6),#525,
'DISTANCE_ACCURACY_VALUE','Maximum Tolerance applied to model');
#523=(
NAMED_UNIT(*)
SI_UNIT($,.STERADIAN.)
SOLID_ANGLE_UNIT()
);
#524=(
NAMED_UNIT(*)
PLANE_ANGLE_UNIT()
SI_UNIT($,.RADIAN.)
);
#525=(
LENGTH_UNIT()
NAMED_UNIT(*)
SI_UNIT($,.METRE.)
);
#526=PRODUCT_DEFINITION_SHAPE('','',#527);
#527=PRODUCT_DEFINITION('','',#529,#528);
#528=PRODUCT_DEFINITION_CONTEXT('',#535,'design');
#529=PRODUCT_DEFINITION_FORMATION_WITH_SPECIFIED_SOURCE('','',#531,
 .NOT_KNOWN.);
#530=PRODUCT_RELATED_PRODUCT_CATEGORY('','',(#531));
#531=PRODUCT('DSCH035-E015','DSCH035-E015','DSCH035-E015',(#533));
#532=PRODUCT_CATEGORY('','');
#533=PRODUCT_CONTEXT('',#535,'mechanical');
#534=APPLICATION_PROTOCOL_DEFINITION('international standard',
'ap242_managed_model_based_3d_engineering',2011,#535);
#535=APPLICATION_CONTEXT('managed model based 3d engineering');
ENDSEC;
END-ISO-10303-21;
