ISO-10303-21;
HEADER;
/* Generated by software containing ST-Developer
 * from STEP Tools, Inc. (www.steptools.com) 
 */
/* OPTION: using custom renumber hook */

FILE_DESCRIPTION(
/* description */ ('STEP AP242',
'CAx-IF Rec.Pracs.---Representation and Presentation of Product Manufa
cturing Information (PMI)---4.0---2014-10-13',
'CAx-IF Rec.Pracs.---3D Tessellated Geometry---0.4---2014-09-14','2;1'),

/* implementation_level */ '2;1');

FILE_NAME(
/* name */ '62797b46a3e06440909f44f0',
/* time_stamp */ '2022-05-09T20:36:22+00:00',
/* author */ (''),
/* organization */ (''),
/* preprocessor_version */ 'ST-DEVELOPER v18.101',
/* originating_system */ '  ',
/* authorisation */ '  ');

FILE_SCHEMA (('AP242_MANAGED_MODEL_BASED_3D_ENGINEERING_MIM_LF { 1 0 10303 442 1 1 4 }'));
ENDSEC;

DATA;
#10=SHAPE_REPRESENTATION_RELATIONSHIP('','',#361,#11);
#11=ADVANCED_BREP_SHAPE_REPRESENTATION('',(#359),#579);
#12=CIRCLE('',#371,0.0052);
#13=CIRCLE('',#372,0.0052);
#14=CIRCLE('',#377,0.0052);
#15=CIRCLE('',#378,0.0052);
#16=CIRCLE('',#383,0.0052);
#17=CIRCLE('',#384,0.0052);
#18=CYLINDRICAL_SURFACE('',#370,0.0052);
#19=CYLINDRICAL_SURFACE('',#376,0.0052);
#20=CYLINDRICAL_SURFACE('',#382,0.0052);
#21=ORIENTED_EDGE('',*,*,#117,.T.);
#22=ORIENTED_EDGE('',*,*,#118,.F.);
#23=ORIENTED_EDGE('',*,*,#119,.F.);
#24=ORIENTED_EDGE('',*,*,#120,.T.);
#25=ORIENTED_EDGE('',*,*,#121,.T.);
#26=ORIENTED_EDGE('',*,*,#122,.F.);
#27=ORIENTED_EDGE('',*,*,#123,.F.);
#28=ORIENTED_EDGE('',*,*,#118,.T.);
#29=ORIENTED_EDGE('',*,*,#124,.F.);
#30=ORIENTED_EDGE('',*,*,#125,.F.);
#31=ORIENTED_EDGE('',*,*,#126,.T.);
#32=ORIENTED_EDGE('',*,*,#122,.T.);
#33=ORIENTED_EDGE('',*,*,#127,.F.);
#34=ORIENTED_EDGE('',*,*,#128,.F.);
#35=ORIENTED_EDGE('',*,*,#129,.T.);
#36=ORIENTED_EDGE('',*,*,#125,.T.);
#37=ORIENTED_EDGE('',*,*,#130,.T.);
#38=ORIENTED_EDGE('',*,*,#131,.F.);
#39=ORIENTED_EDGE('',*,*,#132,.F.);
#40=ORIENTED_EDGE('',*,*,#128,.T.);
#41=ORIENTED_EDGE('',*,*,#133,.T.);
#42=ORIENTED_EDGE('',*,*,#134,.F.);
#43=ORIENTED_EDGE('',*,*,#135,.F.);
#44=ORIENTED_EDGE('',*,*,#131,.T.);
#45=ORIENTED_EDGE('',*,*,#136,.F.);
#46=ORIENTED_EDGE('',*,*,#137,.F.);
#47=ORIENTED_EDGE('',*,*,#138,.T.);
#48=ORIENTED_EDGE('',*,*,#134,.T.);
#49=ORIENTED_EDGE('',*,*,#139,.F.);
#50=ORIENTED_EDGE('',*,*,#140,.F.);
#51=ORIENTED_EDGE('',*,*,#141,.T.);
#52=ORIENTED_EDGE('',*,*,#137,.T.);
#53=ORIENTED_EDGE('',*,*,#142,.T.);
#54=ORIENTED_EDGE('',*,*,#143,.F.);
#55=ORIENTED_EDGE('',*,*,#144,.F.);
#56=ORIENTED_EDGE('',*,*,#140,.T.);
#57=ORIENTED_EDGE('',*,*,#145,.T.);
#58=ORIENTED_EDGE('',*,*,#146,.F.);
#59=ORIENTED_EDGE('',*,*,#147,.F.);
#60=ORIENTED_EDGE('',*,*,#143,.T.);
#61=ORIENTED_EDGE('',*,*,#148,.F.);
#62=ORIENTED_EDGE('',*,*,#149,.F.);
#63=ORIENTED_EDGE('',*,*,#150,.T.);
#64=ORIENTED_EDGE('',*,*,#146,.T.);
#65=ORIENTED_EDGE('',*,*,#151,.F.);
#66=ORIENTED_EDGE('',*,*,#152,.F.);
#67=ORIENTED_EDGE('',*,*,#153,.T.);
#68=ORIENTED_EDGE('',*,*,#149,.T.);
#69=ORIENTED_EDGE('',*,*,#154,.T.);
#70=ORIENTED_EDGE('',*,*,#155,.F.);
#71=ORIENTED_EDGE('',*,*,#156,.F.);
#72=ORIENTED_EDGE('',*,*,#152,.T.);
#73=ORIENTED_EDGE('',*,*,#157,.T.);
#74=ORIENTED_EDGE('',*,*,#158,.F.);
#75=ORIENTED_EDGE('',*,*,#159,.F.);
#76=ORIENTED_EDGE('',*,*,#155,.T.);
#77=ORIENTED_EDGE('',*,*,#160,.F.);
#78=ORIENTED_EDGE('',*,*,#161,.F.);
#79=ORIENTED_EDGE('',*,*,#162,.T.);
#80=ORIENTED_EDGE('',*,*,#158,.T.);
#81=ORIENTED_EDGE('',*,*,#163,.F.);
#82=ORIENTED_EDGE('',*,*,#120,.F.);
#83=ORIENTED_EDGE('',*,*,#164,.T.);
#84=ORIENTED_EDGE('',*,*,#161,.T.);
#85=ORIENTED_EDGE('',*,*,#119,.T.);
#86=ORIENTED_EDGE('',*,*,#123,.T.);
#87=ORIENTED_EDGE('',*,*,#126,.F.);
#88=ORIENTED_EDGE('',*,*,#129,.F.);
#89=ORIENTED_EDGE('',*,*,#132,.T.);
#90=ORIENTED_EDGE('',*,*,#135,.T.);
#91=ORIENTED_EDGE('',*,*,#138,.F.);
#92=ORIENTED_EDGE('',*,*,#141,.F.);
#93=ORIENTED_EDGE('',*,*,#144,.T.);
#94=ORIENTED_EDGE('',*,*,#147,.T.);
#95=ORIENTED_EDGE('',*,*,#150,.F.);
#96=ORIENTED_EDGE('',*,*,#153,.F.);
#97=ORIENTED_EDGE('',*,*,#156,.T.);
#98=ORIENTED_EDGE('',*,*,#159,.T.);
#99=ORIENTED_EDGE('',*,*,#162,.F.);
#100=ORIENTED_EDGE('',*,*,#164,.F.);
#101=ORIENTED_EDGE('',*,*,#117,.F.);
#102=ORIENTED_EDGE('',*,*,#163,.T.);
#103=ORIENTED_EDGE('',*,*,#160,.T.);
#104=ORIENTED_EDGE('',*,*,#157,.F.);
#105=ORIENTED_EDGE('',*,*,#154,.F.);
#106=ORIENTED_EDGE('',*,*,#151,.T.);
#107=ORIENTED_EDGE('',*,*,#148,.T.);
#108=ORIENTED_EDGE('',*,*,#145,.F.);
#109=ORIENTED_EDGE('',*,*,#142,.F.);
#110=ORIENTED_EDGE('',*,*,#139,.T.);
#111=ORIENTED_EDGE('',*,*,#136,.T.);
#112=ORIENTED_EDGE('',*,*,#133,.F.);
#113=ORIENTED_EDGE('',*,*,#130,.F.);
#114=ORIENTED_EDGE('',*,*,#127,.T.);
#115=ORIENTED_EDGE('',*,*,#124,.T.);
#116=ORIENTED_EDGE('',*,*,#121,.F.);
#117=EDGE_CURVE('',#165,#166,#197,.T.);
#118=EDGE_CURVE('',#167,#166,#198,.T.);
#119=EDGE_CURVE('',#168,#167,#199,.T.);
#120=EDGE_CURVE('',#168,#165,#200,.T.);
#121=EDGE_CURVE('',#166,#169,#201,.T.);
#122=EDGE_CURVE('',#170,#169,#202,.T.);
#123=EDGE_CURVE('',#167,#170,#203,.T.);
#124=EDGE_CURVE('',#171,#169,#204,.T.);
#125=EDGE_CURVE('',#172,#171,#205,.T.);
#126=EDGE_CURVE('',#172,#170,#206,.T.);
#127=EDGE_CURVE('',#173,#171,#207,.T.);
#128=EDGE_CURVE('',#174,#173,#208,.T.);
#129=EDGE_CURVE('',#174,#172,#209,.T.);
#130=EDGE_CURVE('',#173,#175,#210,.T.);
#131=EDGE_CURVE('',#176,#175,#211,.T.);
#132=EDGE_CURVE('',#174,#176,#212,.T.);
#133=EDGE_CURVE('',#175,#177,#213,.T.);
#134=EDGE_CURVE('',#178,#177,#214,.T.);
#135=EDGE_CURVE('',#176,#178,#215,.T.);
#136=EDGE_CURVE('',#179,#177,#216,.T.);
#137=EDGE_CURVE('',#180,#179,#217,.T.);
#138=EDGE_CURVE('',#180,#178,#218,.T.);
#139=EDGE_CURVE('',#181,#179,#12,.T.);
#140=EDGE_CURVE('',#182,#181,#219,.T.);
#141=EDGE_CURVE('',#182,#180,#13,.T.);
#142=EDGE_CURVE('',#181,#183,#220,.T.);
#143=EDGE_CURVE('',#184,#183,#221,.T.);
#144=EDGE_CURVE('',#182,#184,#222,.T.);
#145=EDGE_CURVE('',#183,#185,#223,.T.);
#146=EDGE_CURVE('',#186,#185,#224,.T.);
#147=EDGE_CURVE('',#184,#186,#225,.T.);
#148=EDGE_CURVE('',#187,#185,#226,.T.);
#149=EDGE_CURVE('',#188,#187,#227,.T.);
#150=EDGE_CURVE('',#188,#186,#228,.T.);
#151=EDGE_CURVE('',#189,#187,#14,.T.);
#152=EDGE_CURVE('',#190,#189,#229,.T.);
#153=EDGE_CURVE('',#190,#188,#15,.T.);
#154=EDGE_CURVE('',#189,#191,#230,.T.);
#155=EDGE_CURVE('',#192,#191,#231,.T.);
#156=EDGE_CURVE('',#190,#192,#232,.T.);
#157=EDGE_CURVE('',#191,#193,#233,.T.);
#158=EDGE_CURVE('',#194,#193,#234,.T.);
#159=EDGE_CURVE('',#192,#194,#235,.T.);
#160=EDGE_CURVE('',#195,#193,#236,.T.);
#161=EDGE_CURVE('',#196,#195,#237,.T.);
#162=EDGE_CURVE('',#196,#194,#238,.T.);
#163=EDGE_CURVE('',#165,#195,#16,.T.);
#164=EDGE_CURVE('',#168,#196,#17,.T.);
#165=VERTEX_POINT('',#482);
#166=VERTEX_POINT('',#483);
#167=VERTEX_POINT('',#485);
#168=VERTEX_POINT('',#487);
#169=VERTEX_POINT('',#491);
#170=VERTEX_POINT('',#493);
#171=VERTEX_POINT('',#497);
#172=VERTEX_POINT('',#499);
#173=VERTEX_POINT('',#503);
#174=VERTEX_POINT('',#505);
#175=VERTEX_POINT('',#509);
#176=VERTEX_POINT('',#511);
#177=VERTEX_POINT('',#515);
#178=VERTEX_POINT('',#517);
#179=VERTEX_POINT('',#521);
#180=VERTEX_POINT('',#523);
#181=VERTEX_POINT('',#527);
#182=VERTEX_POINT('',#529);
#183=VERTEX_POINT('',#533);
#184=VERTEX_POINT('',#535);
#185=VERTEX_POINT('',#539);
#186=VERTEX_POINT('',#541);
#187=VERTEX_POINT('',#545);
#188=VERTEX_POINT('',#547);
#189=VERTEX_POINT('',#551);
#190=VERTEX_POINT('',#553);
#191=VERTEX_POINT('',#557);
#192=VERTEX_POINT('',#559);
#193=VERTEX_POINT('',#563);
#194=VERTEX_POINT('',#565);
#195=VERTEX_POINT('',#569);
#196=VERTEX_POINT('',#571);
#197=LINE('',#481,#239);
#198=LINE('',#484,#240);
#199=LINE('',#486,#241);
#200=LINE('',#488,#242);
#201=LINE('',#490,#243);
#202=LINE('',#492,#244);
#203=LINE('',#494,#245);
#204=LINE('',#496,#246);
#205=LINE('',#498,#247);
#206=LINE('',#500,#248);
#207=LINE('',#502,#249);
#208=LINE('',#504,#250);
#209=LINE('',#506,#251);
#210=LINE('',#508,#252);
#211=LINE('',#510,#253);
#212=LINE('',#512,#254);
#213=LINE('',#514,#255);
#214=LINE('',#516,#256);
#215=LINE('',#518,#257);
#216=LINE('',#520,#258);
#217=LINE('',#522,#259);
#218=LINE('',#524,#260);
#219=LINE('',#528,#261);
#220=LINE('',#532,#262);
#221=LINE('',#534,#263);
#222=LINE('',#536,#264);
#223=LINE('',#538,#265);
#224=LINE('',#540,#266);
#225=LINE('',#542,#267);
#226=LINE('',#544,#268);
#227=LINE('',#546,#269);
#228=LINE('',#548,#270);
#229=LINE('',#552,#271);
#230=LINE('',#556,#272);
#231=LINE('',#558,#273);
#232=LINE('',#560,#274);
#233=LINE('',#562,#275);
#234=LINE('',#564,#276);
#235=LINE('',#566,#277);
#236=LINE('',#568,#278);
#237=LINE('',#570,#279);
#238=LINE('',#572,#280);
#239=VECTOR('',#391,1.);
#240=VECTOR('',#392,1.);
#241=VECTOR('',#393,1.);
#242=VECTOR('',#394,1.);
#243=VECTOR('',#397,1.);
#244=VECTOR('',#398,1.);
#245=VECTOR('',#399,1.);
#246=VECTOR('',#402,1.);
#247=VECTOR('',#403,1.);
#248=VECTOR('',#404,1.);
#249=VECTOR('',#407,1.);
#250=VECTOR('',#408,1.);
#251=VECTOR('',#409,1.);
#252=VECTOR('',#412,1.);
#253=VECTOR('',#413,1.);
#254=VECTOR('',#414,1.);
#255=VECTOR('',#417,1.);
#256=VECTOR('',#418,1.);
#257=VECTOR('',#419,1.);
#258=VECTOR('',#422,1.);
#259=VECTOR('',#423,1.);
#260=VECTOR('',#424,1.);
#261=VECTOR('',#429,1.);
#262=VECTOR('',#434,1.);
#263=VECTOR('',#435,1.);
#264=VECTOR('',#436,1.);
#265=VECTOR('',#439,1.);
#266=VECTOR('',#440,1.);
#267=VECTOR('',#441,1.);
#268=VECTOR('',#444,1.);
#269=VECTOR('',#445,1.);
#270=VECTOR('',#446,1.);
#271=VECTOR('',#451,1.);
#272=VECTOR('',#456,1.);
#273=VECTOR('',#457,1.);
#274=VECTOR('',#458,1.);
#275=VECTOR('',#461,1.);
#276=VECTOR('',#462,1.);
#277=VECTOR('',#463,1.);
#278=VECTOR('',#466,1.);
#279=VECTOR('',#467,1.);
#280=VECTOR('',#468,1.);
#281=EDGE_LOOP('',(#21,#22,#23,#24));
#282=EDGE_LOOP('',(#25,#26,#27,#28));
#283=EDGE_LOOP('',(#29,#30,#31,#32));
#284=EDGE_LOOP('',(#33,#34,#35,#36));
#285=EDGE_LOOP('',(#37,#38,#39,#40));
#286=EDGE_LOOP('',(#41,#42,#43,#44));
#287=EDGE_LOOP('',(#45,#46,#47,#48));
#288=EDGE_LOOP('',(#49,#50,#51,#52));
#289=EDGE_LOOP('',(#53,#54,#55,#56));
#290=EDGE_LOOP('',(#57,#58,#59,#60));
#291=EDGE_LOOP('',(#61,#62,#63,#64));
#292=EDGE_LOOP('',(#65,#66,#67,#68));
#293=EDGE_LOOP('',(#69,#70,#71,#72));
#294=EDGE_LOOP('',(#73,#74,#75,#76));
#295=EDGE_LOOP('',(#77,#78,#79,#80));
#296=EDGE_LOOP('',(#81,#82,#83,#84));
#297=EDGE_LOOP('',(#85,#86,#87,#88,#89,#90,#91,#92,#93,#94,#95,#96,#97,
#98,#99,#100));
#298=EDGE_LOOP('',(#101,#102,#103,#104,#105,#106,#107,#108,#109,#110,#111,
#112,#113,#114,#115,#116));
#299=FACE_BOUND('',#281,.T.);
#300=FACE_BOUND('',#282,.T.);
#301=FACE_BOUND('',#283,.T.);
#302=FACE_BOUND('',#284,.T.);
#303=FACE_BOUND('',#285,.T.);
#304=FACE_BOUND('',#286,.T.);
#305=FACE_BOUND('',#287,.T.);
#306=FACE_BOUND('',#288,.T.);
#307=FACE_BOUND('',#289,.T.);
#308=FACE_BOUND('',#290,.T.);
#309=FACE_BOUND('',#291,.T.);
#310=FACE_BOUND('',#292,.T.);
#311=FACE_BOUND('',#293,.T.);
#312=FACE_BOUND('',#294,.T.);
#313=FACE_BOUND('',#295,.T.);
#314=FACE_BOUND('',#296,.T.);
#315=FACE_BOUND('',#297,.T.);
#316=FACE_BOUND('',#298,.T.);
#317=PLANE('',#363);
#318=PLANE('',#364);
#319=PLANE('',#365);
#320=PLANE('',#366);
#321=PLANE('',#367);
#322=PLANE('',#368);
#323=PLANE('',#369);
#324=PLANE('',#373);
#325=PLANE('',#374);
#326=PLANE('',#375);
#327=PLANE('',#379);
#328=PLANE('',#380);
#329=PLANE('',#381);
#330=PLANE('',#385);
#331=PLANE('',#386);
#332=ADVANCED_FACE('',(#299),#317,.F.);
#333=ADVANCED_FACE('',(#300),#318,.F.);
#334=ADVANCED_FACE('',(#301),#319,.T.);
#335=ADVANCED_FACE('',(#302),#320,.T.);
#336=ADVANCED_FACE('',(#303),#321,.F.);
#337=ADVANCED_FACE('',(#304),#322,.F.);
#338=ADVANCED_FACE('',(#305),#323,.T.);
#339=ADVANCED_FACE('',(#306),#18,.F.);
#340=ADVANCED_FACE('',(#307),#324,.F.);
#341=ADVANCED_FACE('',(#308),#325,.F.);
#342=ADVANCED_FACE('',(#309),#326,.T.);
#343=ADVANCED_FACE('',(#310),#19,.F.);
#344=ADVANCED_FACE('',(#311),#327,.F.);
#345=ADVANCED_FACE('',(#312),#328,.F.);
#346=ADVANCED_FACE('',(#313),#329,.T.);
#347=ADVANCED_FACE('',(#314),#20,.F.);
#348=ADVANCED_FACE('',(#315),#330,.T.);
#349=ADVANCED_FACE('',(#316),#331,.F.);
#350=CLOSED_SHELL('',(#332,#333,#334,#335,#336,#337,#338,#339,#340,#341,
#342,#343,#344,#345,#346,#347,#348,#349));
#351=STYLED_ITEM('',(#352),#359);
#352=PRESENTATION_STYLE_ASSIGNMENT((#353));
#353=SURFACE_STYLE_USAGE(.BOTH.,#354);
#354=SURFACE_SIDE_STYLE('',(#355));
#355=SURFACE_STYLE_FILL_AREA(#356);
#356=FILL_AREA_STYLE('',(#357));
#357=FILL_AREA_STYLE_COLOUR('',#358);
#358=COLOUR_RGB('',0.301960784313725,0.301960784313725,0.301960784313725);
#359=MANIFOLD_SOLID_BREP('DSC043-M100',#350);
#360=SHAPE_DEFINITION_REPRESENTATION(#584,#361);
#361=SHAPE_REPRESENTATION('DSC043-M100',(#362),#579);
#362=AXIS2_PLACEMENT_3D('',#479,#387,#388);
#363=AXIS2_PLACEMENT_3D('',#480,#389,#390);
#364=AXIS2_PLACEMENT_3D('',#489,#395,#396);
#365=AXIS2_PLACEMENT_3D('',#495,#400,#401);
#366=AXIS2_PLACEMENT_3D('',#501,#405,#406);
#367=AXIS2_PLACEMENT_3D('',#507,#410,#411);
#368=AXIS2_PLACEMENT_3D('',#513,#415,#416);
#369=AXIS2_PLACEMENT_3D('',#519,#420,#421);
#370=AXIS2_PLACEMENT_3D('',#525,#425,#426);
#371=AXIS2_PLACEMENT_3D('',#526,#427,#428);
#372=AXIS2_PLACEMENT_3D('',#530,#430,#431);
#373=AXIS2_PLACEMENT_3D('',#531,#432,#433);
#374=AXIS2_PLACEMENT_3D('',#537,#437,#438);
#375=AXIS2_PLACEMENT_3D('',#543,#442,#443);
#376=AXIS2_PLACEMENT_3D('',#549,#447,#448);
#377=AXIS2_PLACEMENT_3D('',#550,#449,#450);
#378=AXIS2_PLACEMENT_3D('',#554,#452,#453);
#379=AXIS2_PLACEMENT_3D('',#555,#454,#455);
#380=AXIS2_PLACEMENT_3D('',#561,#459,#460);
#381=AXIS2_PLACEMENT_3D('',#567,#464,#465);
#382=AXIS2_PLACEMENT_3D('',#573,#469,#470);
#383=AXIS2_PLACEMENT_3D('',#574,#471,#472);
#384=AXIS2_PLACEMENT_3D('',#575,#473,#474);
#385=AXIS2_PLACEMENT_3D('',#576,#475,#476);
#386=AXIS2_PLACEMENT_3D('',#577,#477,#478);
#387=DIRECTION('',(0.,0.,1.));
#388=DIRECTION('',(1.,0.,0.));
#389=DIRECTION('',(-1.,0.,0.));
#390=DIRECTION('',(0.,0.,1.));
#391=DIRECTION('',(0.,1.,0.));
#392=DIRECTION('',(0.,0.,-1.));
#393=DIRECTION('',(0.,1.,0.));
#394=DIRECTION('',(0.,0.,-1.));
#395=DIRECTION('',(0.,-1.,0.));
#396=DIRECTION('',(0.,0.,-1.));
#397=DIRECTION('',(-1.,0.,0.));
#398=DIRECTION('',(0.,0.,-1.));
#399=DIRECTION('',(-1.,0.,0.));
#400=DIRECTION('',(-1.,0.,0.));
#401=DIRECTION('',(0.,0.,1.));
#402=DIRECTION('',(0.,1.,0.));
#403=DIRECTION('',(0.,0.,-1.));
#404=DIRECTION('',(0.,1.,0.));
#405=DIRECTION('',(1.23908819712629E-16,-1.,0.));
#406=DIRECTION('',(1.,1.23908819712629E-16,0.));
#407=DIRECTION('',(-1.,-1.23908819712629E-16,0.));
#408=DIRECTION('',(0.,0.,-1.));
#409=DIRECTION('',(-1.,-1.23908819712629E-16,0.));
#410=DIRECTION('',(-1.,0.,0.));
#411=DIRECTION('',(0.,0.,1.));
#412=DIRECTION('',(0.,1.,0.));
#413=DIRECTION('',(0.,0.,-1.));
#414=DIRECTION('',(0.,1.,0.));
#415=DIRECTION('',(0.,-1.,0.));
#416=DIRECTION('',(0.,0.,-1.));
#417=DIRECTION('',(-1.,0.,0.));
#418=DIRECTION('',(0.,0.,-1.));
#419=DIRECTION('',(-1.,0.,0.));
#420=DIRECTION('',(-1.,0.,0.));
#421=DIRECTION('',(0.,0.,1.));
#422=DIRECTION('',(0.,1.,0.));
#423=DIRECTION('',(0.,0.,-1.));
#424=DIRECTION('',(0.,1.,0.));
#425=DIRECTION('',(0.,0.,-1.));
#426=DIRECTION('',(-1.,0.,0.));
#427=DIRECTION('',(0.,0.,1.));
#428=DIRECTION('',(1.,0.,0.));
#429=DIRECTION('',(0.,0.,-1.));
#430=DIRECTION('',(0.,0.,1.));
#431=DIRECTION('',(1.,0.,0.));
#432=DIRECTION('',(-1.,0.,0.));
#433=DIRECTION('',(0.,0.,1.));
#434=DIRECTION('',(0.,1.,0.));
#435=DIRECTION('',(0.,0.,-1.));
#436=DIRECTION('',(0.,1.,0.));
#437=DIRECTION('',(2.28253088944317E-16,-1.,0.));
#438=DIRECTION('',(1.,2.28253088944317E-16,0.));
#439=DIRECTION('',(-1.,-2.28253088944317E-16,0.));
#440=DIRECTION('',(0.,0.,-1.));
#441=DIRECTION('',(-1.,-2.28253088944317E-16,0.));
#442=DIRECTION('',(-1.,0.,0.));
#443=DIRECTION('',(0.,0.,1.));
#444=DIRECTION('',(0.,1.,0.));
#445=DIRECTION('',(0.,0.,-1.));
#446=DIRECTION('',(0.,1.,0.));
#447=DIRECTION('',(0.,0.,-1.));
#448=DIRECTION('',(-1.,0.,0.));
#449=DIRECTION('',(0.,0.,1.));
#450=DIRECTION('',(1.,0.,0.));
#451=DIRECTION('',(0.,0.,-1.));
#452=DIRECTION('',(0.,0.,1.));
#453=DIRECTION('',(1.,0.,0.));
#454=DIRECTION('',(-1.,0.,0.));
#455=DIRECTION('',(0.,0.,1.));
#456=DIRECTION('',(0.,1.,0.));
#457=DIRECTION('',(0.,0.,-1.));
#458=DIRECTION('',(0.,1.,0.));
#459=DIRECTION('',(2.28253088944317E-16,-1.,0.));
#460=DIRECTION('',(1.,2.28253088944317E-16,0.));
#461=DIRECTION('',(-1.,-2.28253088944317E-16,0.));
#462=DIRECTION('',(0.,0.,-1.));
#463=DIRECTION('',(-1.,-2.28253088944317E-16,0.));
#464=DIRECTION('',(-1.,0.,0.));
#465=DIRECTION('',(0.,0.,1.));
#466=DIRECTION('',(0.,1.,0.));
#467=DIRECTION('',(0.,0.,-1.));
#468=DIRECTION('',(0.,1.,0.));
#469=DIRECTION('',(0.,0.,-1.));
#470=DIRECTION('',(-1.,0.,0.));
#471=DIRECTION('',(0.,0.,1.));
#472=DIRECTION('',(1.,0.,0.));
#473=DIRECTION('',(0.,0.,1.));
#474=DIRECTION('',(1.,0.,0.));
#475=DIRECTION('',(0.,0.,1.));
#476=DIRECTION('',(1.,0.,0.));
#477=DIRECTION('',(0.,0.,1.));
#478=DIRECTION('',(1.,0.,0.));
#479=CARTESIAN_POINT('',(0.,0.,0.));
#480=CARTESIAN_POINT('',(-0.0232,0.00625,0.001));
#481=CARTESIAN_POINT('',(-0.0232,0.00625,0.));
#482=CARTESIAN_POINT('',(-0.0232,6.36816335556624E-19,0.));
#483=CARTESIAN_POINT('',(-0.0232,0.0125,0.));
#484=CARTESIAN_POINT('',(-0.0232,0.0125,0.001));
#485=CARTESIAN_POINT('',(-0.0232,0.0125,0.001));
#486=CARTESIAN_POINT('',(-0.0232,0.00625,0.001));
#487=CARTESIAN_POINT('',(-0.0232,6.36816335556624E-19,0.001));
#488=CARTESIAN_POINT('',(-0.0232,6.36816335556624E-19,0.001));
#489=CARTESIAN_POINT('',(-0.0256,0.0125,0.001));
#490=CARTESIAN_POINT('',(-0.0256,0.0125,0.));
#491=CARTESIAN_POINT('',(-0.028,0.0125,0.));
#492=CARTESIAN_POINT('',(-0.028,0.0125,0.001));
#493=CARTESIAN_POINT('',(-0.028,0.0125,0.001));
#494=CARTESIAN_POINT('',(-0.0256,0.0125,0.001));
#495=CARTESIAN_POINT('',(-0.028,-3.46944695195361E-18,0.001));
#496=CARTESIAN_POINT('',(-0.028,-3.46944695195361E-18,0.));
#497=CARTESIAN_POINT('',(-0.028,-0.0125,0.));
#498=CARTESIAN_POINT('',(-0.028,-0.0125,0.001));
#499=CARTESIAN_POINT('',(-0.028,-0.0125,0.001));
#500=CARTESIAN_POINT('',(-0.028,-3.46944695195361E-18,0.001));
#501=CARTESIAN_POINT('',(-3.46944695195361E-18,-0.0125,0.001));
#502=CARTESIAN_POINT('',(-3.46944695195361E-18,-0.0125,0.));
#503=CARTESIAN_POINT('',(0.028,-0.0125,0.));
#504=CARTESIAN_POINT('',(0.028,-0.0125,0.001));
#505=CARTESIAN_POINT('',(0.028,-0.0125,0.001));
#506=CARTESIAN_POINT('',(-3.46944695195361E-18,-0.0125,0.001));
#507=CARTESIAN_POINT('',(0.028,3.46944695195361E-18,0.001));
#508=CARTESIAN_POINT('',(0.028,3.46944695195361E-18,0.));
#509=CARTESIAN_POINT('',(0.028,0.0125,0.));
#510=CARTESIAN_POINT('',(0.028,0.0125,0.001));
#511=CARTESIAN_POINT('',(0.028,0.0125,0.001));
#512=CARTESIAN_POINT('',(0.028,3.46944695195361E-18,0.001));
#513=CARTESIAN_POINT('',(0.0256,0.0125,0.001));
#514=CARTESIAN_POINT('',(0.0256,0.0125,0.));
#515=CARTESIAN_POINT('',(0.0232,0.0125,0.));
#516=CARTESIAN_POINT('',(0.0232,0.0125,0.001));
#517=CARTESIAN_POINT('',(0.0232,0.0125,0.001));
#518=CARTESIAN_POINT('',(0.0256,0.0125,0.001));
#519=CARTESIAN_POINT('',(0.0232,0.00625,0.001));
#520=CARTESIAN_POINT('',(0.0232,0.00625,0.));
#521=CARTESIAN_POINT('',(0.0232,-1.17293350846667E-18,0.));
#522=CARTESIAN_POINT('',(0.0232,-1.17293350846667E-18,0.001));
#523=CARTESIAN_POINT('',(0.0232,-1.17293350846667E-18,0.001));
#524=CARTESIAN_POINT('',(0.0232,0.00625,0.001));
#525=CARTESIAN_POINT('',(0.018,-2.1770900513173E-19,0.001));
#526=CARTESIAN_POINT('',(0.018,-2.1770900513173E-19,0.));
#527=CARTESIAN_POINT('',(0.0128,0.,0.));
#528=CARTESIAN_POINT('',(0.0128,0.,0.001));
#529=CARTESIAN_POINT('',(0.0128,0.,0.001));
#530=CARTESIAN_POINT('',(0.018,-2.1770900513173E-19,0.001));
#531=CARTESIAN_POINT('',(0.0128,0.00625,0.001));
#532=CARTESIAN_POINT('',(0.0128,0.00625,0.));
#533=CARTESIAN_POINT('',(0.0128,0.0125,0.));
#534=CARTESIAN_POINT('',(0.0128,0.0125,0.001));
#535=CARTESIAN_POINT('',(0.0128,0.0125,0.001));
#536=CARTESIAN_POINT('',(0.0128,0.00625,0.001));
#537=CARTESIAN_POINT('',(0.009,0.0125,0.001));
#538=CARTESIAN_POINT('',(0.009,0.0125,0.));
#539=CARTESIAN_POINT('',(0.0052,0.0125,0.));
#540=CARTESIAN_POINT('',(0.0052,0.0125,0.001));
#541=CARTESIAN_POINT('',(0.0052,0.0125,0.001));
#542=CARTESIAN_POINT('',(0.009,0.0125,0.001));
#543=CARTESIAN_POINT('',(0.0052,0.00625,0.001));
#544=CARTESIAN_POINT('',(0.0052,0.00625,0.));
#545=CARTESIAN_POINT('',(0.0052,0.,0.));
#546=CARTESIAN_POINT('',(0.0052,0.,0.001));
#547=CARTESIAN_POINT('',(0.0052,0.,0.001));
#548=CARTESIAN_POINT('',(0.0052,0.00625,0.001));
#549=CARTESIAN_POINT('',(0.,-3.18408167778312E-19,0.001));
#550=CARTESIAN_POINT('',(0.,-3.18408167778312E-19,0.));
#551=CARTESIAN_POINT('',(-0.0052,6.36816335556624E-19,0.));
#552=CARTESIAN_POINT('',(-0.0052,6.36816335556624E-19,0.001));
#553=CARTESIAN_POINT('',(-0.0052,6.36816335556624E-19,0.001));
#554=CARTESIAN_POINT('',(0.,-3.18408167778312E-19,0.001));
#555=CARTESIAN_POINT('',(-0.0052,0.00625,0.001));
#556=CARTESIAN_POINT('',(-0.0052,0.00625,0.));
#557=CARTESIAN_POINT('',(-0.0052,0.0125,0.));
#558=CARTESIAN_POINT('',(-0.0052,0.0125,0.001));
#559=CARTESIAN_POINT('',(-0.0052,0.0125,0.001));
#560=CARTESIAN_POINT('',(-0.0052,0.00625,0.001));
#561=CARTESIAN_POINT('',(-0.009,0.0125,0.001));
#562=CARTESIAN_POINT('',(-0.009,0.0125,0.));
#563=CARTESIAN_POINT('',(-0.0128,0.0125,0.));
#564=CARTESIAN_POINT('',(-0.0128,0.0125,0.001));
#565=CARTESIAN_POINT('',(-0.0128,0.0125,0.001));
#566=CARTESIAN_POINT('',(-0.009,0.0125,0.001));
#567=CARTESIAN_POINT('',(-0.0128,0.00625,0.001));
#568=CARTESIAN_POINT('',(-0.0128,0.00625,0.));
#569=CARTESIAN_POINT('',(-0.0128,0.,0.));
#570=CARTESIAN_POINT('',(-0.0128,0.,0.001));
#571=CARTESIAN_POINT('',(-0.0128,0.,0.001));
#572=CARTESIAN_POINT('',(-0.0128,0.00625,0.001));
#573=CARTESIAN_POINT('',(-0.018,-3.18408167778312E-19,0.001));
#574=CARTESIAN_POINT('',(-0.018,-3.18408167778312E-19,0.));
#575=CARTESIAN_POINT('',(-0.018,-3.18408167778312E-19,0.001));
#576=CARTESIAN_POINT('',(-3.46944695195361E-18,0.,0.001));
#577=CARTESIAN_POINT('',(-3.46944695195361E-18,0.,0.));
#578=MECHANICAL_DESIGN_GEOMETRIC_PRESENTATION_REPRESENTATION('',(#351),
#579);
#579=(
GEOMETRIC_REPRESENTATION_CONTEXT(3)
GLOBAL_UNCERTAINTY_ASSIGNED_CONTEXT((#580))
GLOBAL_UNIT_ASSIGNED_CONTEXT((#583,#582,#581))
REPRESENTATION_CONTEXT('DSC043-M100','TOP_LEVEL_ASSEMBLY_PART')
);
#580=UNCERTAINTY_MEASURE_WITH_UNIT(LENGTH_MEASURE(5.E-6),#583,
'DISTANCE_ACCURACY_VALUE','Maximum Tolerance applied to model');
#581=(
NAMED_UNIT(*)
SI_UNIT($,.STERADIAN.)
SOLID_ANGLE_UNIT()
);
#582=(
NAMED_UNIT(*)
PLANE_ANGLE_UNIT()
SI_UNIT($,.RADIAN.)
);
#583=(
LENGTH_UNIT()
NAMED_UNIT(*)
SI_UNIT($,.METRE.)
);
#584=PRODUCT_DEFINITION_SHAPE('','',#585);
#585=PRODUCT_DEFINITION('','',#587,#586);
#586=PRODUCT_DEFINITION_CONTEXT('',#593,'design');
#587=PRODUCT_DEFINITION_FORMATION_WITH_SPECIFIED_SOURCE('','',#589,
 .NOT_KNOWN.);
#588=PRODUCT_RELATED_PRODUCT_CATEGORY('','',(#589));
#589=PRODUCT('DSC043-M100','DSC043-M100','DSC043-M100',(#591));
#590=PRODUCT_CATEGORY('','');
#591=PRODUCT_CONTEXT('',#593,'mechanical');
#592=APPLICATION_PROTOCOL_DEFINITION('international standard',
'ap242_managed_model_based_3d_engineering',2011,#593);
#593=APPLICATION_CONTEXT('managed model based 3d engineering');
ENDSEC;
END-ISO-10303-21;
