ISO-10303-21;
HEADER;
/* Generated by software containing ST-Developer
 * from STEP Tools, Inc. (www.steptools.com) 
 */
/* OPTION: using custom renumber hook */

FILE_DESCRIPTION(
/* description */ ('STEP AP242',
'CAx-IF Rec.Pracs.---Representation and Presentation of Product Manufa
cturing Information (PMI)---4.0---2014-10-13',
'CAx-IF Rec.Pracs.---3D Tessellated Geometry---0.4---2014-09-14','2;1'),

/* implementation_level */ '2;1');

FILE_NAME(
/* name */ '62798ff0a3e06440909fba76',
/* time_stamp */ '2022-05-09T22:04:32+00:00',
/* author */ (''),
/* organization */ (''),
/* preprocessor_version */ 'ST-DEVELOPER v18.101',
/* originating_system */ '  ',
/* authorisation */ '  ');

FILE_SCHEMA (('AP242_MANAGED_MODEL_BASED_3D_ENGINEERING_MIM_LF { 1 0 10303 442 1 1 4 }'));
ENDSEC;

DATA;
#10=SHAPE_REPRESENTATION_RELATIONSHIP('','',#311,#11);
#11=ADVANCED_BREP_SHAPE_REPRESENTATION('',(#309),#521);
#12=PLANE('',#316);
#13=PLANE('',#320);
#14=PLANE('',#324);
#15=PLANE('',#328);
#16=PLANE('',#332);
#17=PLANE('',#336);
#18=PLANE('',#340);
#19=PLANE('',#341);
#20=PLANE('',#342);
#21=LINE('',#438,#49);
#22=LINE('',#442,#50);
#23=LINE('',#444,#51);
#24=LINE('',#446,#52);
#25=LINE('',#448,#53);
#26=LINE('',#452,#54);
#27=LINE('',#456,#55);
#28=LINE('',#458,#56);
#29=LINE('',#460,#57);
#30=LINE('',#464,#58);
#31=LINE('',#468,#59);
#32=LINE('',#470,#60);
#33=LINE('',#472,#61);
#34=LINE('',#476,#62);
#35=LINE('',#480,#63);
#36=LINE('',#482,#64);
#37=LINE('',#484,#65);
#38=LINE('',#488,#66);
#39=LINE('',#492,#67);
#40=LINE('',#494,#68);
#41=LINE('',#496,#69);
#42=LINE('',#500,#70);
#43=LINE('',#504,#71);
#44=LINE('',#506,#72);
#45=LINE('',#508,#73);
#46=LINE('',#512,#74);
#47=LINE('',#516,#75);
#48=LINE('',#517,#76);
#49=VECTOR('',#349,1.);
#50=VECTOR('',#352,1.);
#51=VECTOR('',#355,1.);
#52=VECTOR('',#356,1.);
#53=VECTOR('',#357,1.);
#54=VECTOR('',#362,1.);
#55=VECTOR('',#367,1.);
#56=VECTOR('',#368,1.);
#57=VECTOR('',#369,1.);
#58=VECTOR('',#374,1.);
#59=VECTOR('',#379,1.);
#60=VECTOR('',#380,1.);
#61=VECTOR('',#381,1.);
#62=VECTOR('',#386,1.);
#63=VECTOR('',#391,1.);
#64=VECTOR('',#392,1.);
#65=VECTOR('',#393,1.);
#66=VECTOR('',#398,1.);
#67=VECTOR('',#403,1.);
#68=VECTOR('',#404,1.);
#69=VECTOR('',#405,1.);
#70=VECTOR('',#410,1.);
#71=VECTOR('',#415,1.);
#72=VECTOR('',#416,1.);
#73=VECTOR('',#417,1.);
#74=VECTOR('',#422,1.);
#75=VECTOR('',#427,1.);
#76=VECTOR('',#428,1.);
#77=ORIENTED_EDGE('',*,*,#161,.F.);
#78=ORIENTED_EDGE('',*,*,#162,.F.);
#79=ORIENTED_EDGE('',*,*,#163,.T.);
#80=ORIENTED_EDGE('',*,*,#164,.T.);
#81=ORIENTED_EDGE('',*,*,#165,.T.);
#82=ORIENTED_EDGE('',*,*,#166,.F.);
#83=ORIENTED_EDGE('',*,*,#167,.F.);
#84=ORIENTED_EDGE('',*,*,#162,.T.);
#85=ORIENTED_EDGE('',*,*,#168,.T.);
#86=ORIENTED_EDGE('',*,*,#169,.F.);
#87=ORIENTED_EDGE('',*,*,#170,.F.);
#88=ORIENTED_EDGE('',*,*,#166,.T.);
#89=ORIENTED_EDGE('',*,*,#171,.T.);
#90=ORIENTED_EDGE('',*,*,#172,.F.);
#91=ORIENTED_EDGE('',*,*,#173,.F.);
#92=ORIENTED_EDGE('',*,*,#169,.T.);
#93=ORIENTED_EDGE('',*,*,#174,.T.);
#94=ORIENTED_EDGE('',*,*,#175,.F.);
#95=ORIENTED_EDGE('',*,*,#176,.F.);
#96=ORIENTED_EDGE('',*,*,#172,.T.);
#97=ORIENTED_EDGE('',*,*,#177,.T.);
#98=ORIENTED_EDGE('',*,*,#178,.F.);
#99=ORIENTED_EDGE('',*,*,#179,.F.);
#100=ORIENTED_EDGE('',*,*,#175,.T.);
#101=ORIENTED_EDGE('',*,*,#180,.T.);
#102=ORIENTED_EDGE('',*,*,#181,.F.);
#103=ORIENTED_EDGE('',*,*,#182,.F.);
#104=ORIENTED_EDGE('',*,*,#178,.T.);
#105=ORIENTED_EDGE('',*,*,#183,.F.);
#106=ORIENTED_EDGE('',*,*,#184,.F.);
#107=ORIENTED_EDGE('',*,*,#185,.T.);
#108=ORIENTED_EDGE('',*,*,#181,.T.);
#109=ORIENTED_EDGE('',*,*,#186,.T.);
#110=ORIENTED_EDGE('',*,*,#187,.F.);
#111=ORIENTED_EDGE('',*,*,#188,.F.);
#112=ORIENTED_EDGE('',*,*,#184,.T.);
#113=ORIENTED_EDGE('',*,*,#189,.F.);
#114=ORIENTED_EDGE('',*,*,#190,.F.);
#115=ORIENTED_EDGE('',*,*,#191,.T.);
#116=ORIENTED_EDGE('',*,*,#187,.T.);
#117=ORIENTED_EDGE('',*,*,#192,.T.);
#118=ORIENTED_EDGE('',*,*,#193,.F.);
#119=ORIENTED_EDGE('',*,*,#194,.F.);
#120=ORIENTED_EDGE('',*,*,#190,.T.);
#121=ORIENTED_EDGE('',*,*,#195,.T.);
#122=ORIENTED_EDGE('',*,*,#196,.F.);
#123=ORIENTED_EDGE('',*,*,#197,.F.);
#124=ORIENTED_EDGE('',*,*,#193,.T.);
#125=ORIENTED_EDGE('',*,*,#198,.T.);
#126=ORIENTED_EDGE('',*,*,#199,.F.);
#127=ORIENTED_EDGE('',*,*,#200,.F.);
#128=ORIENTED_EDGE('',*,*,#196,.T.);
#129=ORIENTED_EDGE('',*,*,#201,.F.);
#130=ORIENTED_EDGE('',*,*,#164,.F.);
#131=ORIENTED_EDGE('',*,*,#202,.T.);
#132=ORIENTED_EDGE('',*,*,#199,.T.);
#133=ORIENTED_EDGE('',*,*,#163,.F.);
#134=ORIENTED_EDGE('',*,*,#167,.T.);
#135=ORIENTED_EDGE('',*,*,#170,.T.);
#136=ORIENTED_EDGE('',*,*,#173,.T.);
#137=ORIENTED_EDGE('',*,*,#176,.T.);
#138=ORIENTED_EDGE('',*,*,#179,.T.);
#139=ORIENTED_EDGE('',*,*,#182,.T.);
#140=ORIENTED_EDGE('',*,*,#185,.F.);
#141=ORIENTED_EDGE('',*,*,#188,.T.);
#142=ORIENTED_EDGE('',*,*,#191,.F.);
#143=ORIENTED_EDGE('',*,*,#194,.T.);
#144=ORIENTED_EDGE('',*,*,#197,.T.);
#145=ORIENTED_EDGE('',*,*,#200,.T.);
#146=ORIENTED_EDGE('',*,*,#202,.F.);
#147=ORIENTED_EDGE('',*,*,#161,.T.);
#148=ORIENTED_EDGE('',*,*,#201,.T.);
#149=ORIENTED_EDGE('',*,*,#198,.F.);
#150=ORIENTED_EDGE('',*,*,#195,.F.);
#151=ORIENTED_EDGE('',*,*,#192,.F.);
#152=ORIENTED_EDGE('',*,*,#189,.T.);
#153=ORIENTED_EDGE('',*,*,#186,.F.);
#154=ORIENTED_EDGE('',*,*,#183,.T.);
#155=ORIENTED_EDGE('',*,*,#180,.F.);
#156=ORIENTED_EDGE('',*,*,#177,.F.);
#157=ORIENTED_EDGE('',*,*,#174,.F.);
#158=ORIENTED_EDGE('',*,*,#171,.F.);
#159=ORIENTED_EDGE('',*,*,#168,.F.);
#160=ORIENTED_EDGE('',*,*,#165,.F.);
#161=EDGE_CURVE('',#203,#204,#231,.T.);
#162=EDGE_CURVE('',#205,#203,#21,.T.);
#163=EDGE_CURVE('',#205,#206,#232,.T.);
#164=EDGE_CURVE('',#206,#204,#22,.T.);
#165=EDGE_CURVE('',#203,#207,#23,.T.);
#166=EDGE_CURVE('',#208,#207,#24,.T.);
#167=EDGE_CURVE('',#205,#208,#25,.T.);
#168=EDGE_CURVE('',#207,#209,#233,.T.);
#169=EDGE_CURVE('',#210,#209,#26,.T.);
#170=EDGE_CURVE('',#208,#210,#234,.T.);
#171=EDGE_CURVE('',#209,#211,#27,.T.);
#172=EDGE_CURVE('',#212,#211,#28,.T.);
#173=EDGE_CURVE('',#210,#212,#29,.T.);
#174=EDGE_CURVE('',#211,#213,#235,.T.);
#175=EDGE_CURVE('',#214,#213,#30,.T.);
#176=EDGE_CURVE('',#212,#214,#236,.T.);
#177=EDGE_CURVE('',#213,#215,#31,.T.);
#178=EDGE_CURVE('',#216,#215,#32,.T.);
#179=EDGE_CURVE('',#214,#216,#33,.T.);
#180=EDGE_CURVE('',#215,#217,#237,.T.);
#181=EDGE_CURVE('',#218,#217,#34,.T.);
#182=EDGE_CURVE('',#216,#218,#238,.T.);
#183=EDGE_CURVE('',#219,#217,#35,.T.);
#184=EDGE_CURVE('',#220,#219,#36,.T.);
#185=EDGE_CURVE('',#220,#218,#37,.T.);
#186=EDGE_CURVE('',#219,#221,#239,.T.);
#187=EDGE_CURVE('',#222,#221,#38,.T.);
#188=EDGE_CURVE('',#220,#222,#240,.T.);
#189=EDGE_CURVE('',#223,#221,#39,.T.);
#190=EDGE_CURVE('',#224,#223,#40,.T.);
#191=EDGE_CURVE('',#224,#222,#41,.T.);
#192=EDGE_CURVE('',#223,#225,#241,.T.);
#193=EDGE_CURVE('',#226,#225,#42,.T.);
#194=EDGE_CURVE('',#224,#226,#242,.T.);
#195=EDGE_CURVE('',#225,#227,#43,.T.);
#196=EDGE_CURVE('',#228,#227,#44,.T.);
#197=EDGE_CURVE('',#226,#228,#45,.T.);
#198=EDGE_CURVE('',#227,#229,#243,.T.);
#199=EDGE_CURVE('',#230,#229,#46,.T.);
#200=EDGE_CURVE('',#228,#230,#244,.T.);
#201=EDGE_CURVE('',#204,#229,#47,.T.);
#202=EDGE_CURVE('',#206,#230,#48,.T.);
#203=VERTEX_POINT('',#436);
#204=VERTEX_POINT('',#437);
#205=VERTEX_POINT('',#439);
#206=VERTEX_POINT('',#441);
#207=VERTEX_POINT('',#445);
#208=VERTEX_POINT('',#447);
#209=VERTEX_POINT('',#451);
#210=VERTEX_POINT('',#453);
#211=VERTEX_POINT('',#457);
#212=VERTEX_POINT('',#459);
#213=VERTEX_POINT('',#463);
#214=VERTEX_POINT('',#465);
#215=VERTEX_POINT('',#469);
#216=VERTEX_POINT('',#471);
#217=VERTEX_POINT('',#475);
#218=VERTEX_POINT('',#477);
#219=VERTEX_POINT('',#481);
#220=VERTEX_POINT('',#483);
#221=VERTEX_POINT('',#487);
#222=VERTEX_POINT('',#489);
#223=VERTEX_POINT('',#493);
#224=VERTEX_POINT('',#495);
#225=VERTEX_POINT('',#499);
#226=VERTEX_POINT('',#501);
#227=VERTEX_POINT('',#505);
#228=VERTEX_POINT('',#507);
#229=VERTEX_POINT('',#511);
#230=VERTEX_POINT('',#513);
#231=CIRCLE('',#314,0.00425);
#232=CIRCLE('',#315,0.00425);
#233=CIRCLE('',#318,0.0015);
#234=CIRCLE('',#319,0.0015);
#235=CIRCLE('',#322,0.0015);
#236=CIRCLE('',#323,0.0015);
#237=CIRCLE('',#326,0.0015);
#238=CIRCLE('',#327,0.0015);
#239=CIRCLE('',#330,0.0015);
#240=CIRCLE('',#331,0.0015);
#241=CIRCLE('',#334,0.0015);
#242=CIRCLE('',#335,0.0015);
#243=CIRCLE('',#338,0.0015);
#244=CIRCLE('',#339,0.0015);
#245=EDGE_LOOP('',(#77,#78,#79,#80));
#246=EDGE_LOOP('',(#81,#82,#83,#84));
#247=EDGE_LOOP('',(#85,#86,#87,#88));
#248=EDGE_LOOP('',(#89,#90,#91,#92));
#249=EDGE_LOOP('',(#93,#94,#95,#96));
#250=EDGE_LOOP('',(#97,#98,#99,#100));
#251=EDGE_LOOP('',(#101,#102,#103,#104));
#252=EDGE_LOOP('',(#105,#106,#107,#108));
#253=EDGE_LOOP('',(#109,#110,#111,#112));
#254=EDGE_LOOP('',(#113,#114,#115,#116));
#255=EDGE_LOOP('',(#117,#118,#119,#120));
#256=EDGE_LOOP('',(#121,#122,#123,#124));
#257=EDGE_LOOP('',(#125,#126,#127,#128));
#258=EDGE_LOOP('',(#129,#130,#131,#132));
#259=EDGE_LOOP('',(#133,#134,#135,#136,#137,#138,#139,#140,#141,#142,#143,
#144,#145,#146));
#260=EDGE_LOOP('',(#147,#148,#149,#150,#151,#152,#153,#154,#155,#156,#157,
#158,#159,#160));
#261=FACE_BOUND('',#245,.T.);
#262=FACE_BOUND('',#246,.T.);
#263=FACE_BOUND('',#247,.T.);
#264=FACE_BOUND('',#248,.T.);
#265=FACE_BOUND('',#249,.T.);
#266=FACE_BOUND('',#250,.T.);
#267=FACE_BOUND('',#251,.T.);
#268=FACE_BOUND('',#252,.T.);
#269=FACE_BOUND('',#253,.T.);
#270=FACE_BOUND('',#254,.T.);
#271=FACE_BOUND('',#255,.T.);
#272=FACE_BOUND('',#256,.T.);
#273=FACE_BOUND('',#257,.T.);
#274=FACE_BOUND('',#258,.T.);
#275=FACE_BOUND('',#259,.T.);
#276=FACE_BOUND('',#260,.T.);
#277=CYLINDRICAL_SURFACE('',#313,0.00425);
#278=CYLINDRICAL_SURFACE('',#317,0.0015);
#279=CYLINDRICAL_SURFACE('',#321,0.0015);
#280=CYLINDRICAL_SURFACE('',#325,0.0015);
#281=CYLINDRICAL_SURFACE('',#329,0.0015);
#282=CYLINDRICAL_SURFACE('',#333,0.0015);
#283=CYLINDRICAL_SURFACE('',#337,0.0015);
#284=ADVANCED_FACE('',(#261),#277,.F.);
#285=ADVANCED_FACE('',(#262),#12,.F.);
#286=ADVANCED_FACE('',(#263),#278,.T.);
#287=ADVANCED_FACE('',(#264),#13,.F.);
#288=ADVANCED_FACE('',(#265),#279,.T.);
#289=ADVANCED_FACE('',(#266),#14,.F.);
#290=ADVANCED_FACE('',(#267),#280,.T.);
#291=ADVANCED_FACE('',(#268),#15,.T.);
#292=ADVANCED_FACE('',(#269),#281,.T.);
#293=ADVANCED_FACE('',(#270),#16,.T.);
#294=ADVANCED_FACE('',(#271),#282,.T.);
#295=ADVANCED_FACE('',(#272),#17,.F.);
#296=ADVANCED_FACE('',(#273),#283,.T.);
#297=ADVANCED_FACE('',(#274),#18,.T.);
#298=ADVANCED_FACE('',(#275),#19,.T.);
#299=ADVANCED_FACE('',(#276),#20,.F.);
#300=CLOSED_SHELL('',(#284,#285,#286,#287,#288,#289,#290,#291,#292,#293,
#294,#295,#296,#297,#298,#299));
#301=STYLED_ITEM('',(#302),#309);
#302=PRESENTATION_STYLE_ASSIGNMENT((#303));
#303=SURFACE_STYLE_USAGE(.BOTH.,#304);
#304=SURFACE_SIDE_STYLE('',(#305));
#305=SURFACE_STYLE_FILL_AREA(#306);
#306=FILL_AREA_STYLE('',(#307));
#307=FILL_AREA_STYLE_COLOUR('',#308);
#308=COLOUR_RGB('',0.917647058823529,0.917647058823529,0.917647058823529);
#309=MANIFOLD_SOLID_BREP('DSCH049-E032',#300);
#310=SHAPE_DEFINITION_REPRESENTATION(#526,#311);
#311=SHAPE_REPRESENTATION('DSCH049-E032',(#312),#521);
#312=AXIS2_PLACEMENT_3D('',#433,#343,#344);
#313=AXIS2_PLACEMENT_3D('',#434,#345,#346);
#314=AXIS2_PLACEMENT_3D('',#435,#347,#348);
#315=AXIS2_PLACEMENT_3D('',#440,#350,#351);
#316=AXIS2_PLACEMENT_3D('',#443,#353,#354);
#317=AXIS2_PLACEMENT_3D('',#449,#358,#359);
#318=AXIS2_PLACEMENT_3D('',#450,#360,#361);
#319=AXIS2_PLACEMENT_3D('',#454,#363,#364);
#320=AXIS2_PLACEMENT_3D('',#455,#365,#366);
#321=AXIS2_PLACEMENT_3D('',#461,#370,#371);
#322=AXIS2_PLACEMENT_3D('',#462,#372,#373);
#323=AXIS2_PLACEMENT_3D('',#466,#375,#376);
#324=AXIS2_PLACEMENT_3D('',#467,#377,#378);
#325=AXIS2_PLACEMENT_3D('',#473,#382,#383);
#326=AXIS2_PLACEMENT_3D('',#474,#384,#385);
#327=AXIS2_PLACEMENT_3D('',#478,#387,#388);
#328=AXIS2_PLACEMENT_3D('',#479,#389,#390);
#329=AXIS2_PLACEMENT_3D('',#485,#394,#395);
#330=AXIS2_PLACEMENT_3D('',#486,#396,#397);
#331=AXIS2_PLACEMENT_3D('',#490,#399,#400);
#332=AXIS2_PLACEMENT_3D('',#491,#401,#402);
#333=AXIS2_PLACEMENT_3D('',#497,#406,#407);
#334=AXIS2_PLACEMENT_3D('',#498,#408,#409);
#335=AXIS2_PLACEMENT_3D('',#502,#411,#412);
#336=AXIS2_PLACEMENT_3D('',#503,#413,#414);
#337=AXIS2_PLACEMENT_3D('',#509,#418,#419);
#338=AXIS2_PLACEMENT_3D('',#510,#420,#421);
#339=AXIS2_PLACEMENT_3D('',#514,#423,#424);
#340=AXIS2_PLACEMENT_3D('',#515,#425,#426);
#341=AXIS2_PLACEMENT_3D('',#518,#429,#430);
#342=AXIS2_PLACEMENT_3D('',#519,#431,#432);
#343=DIRECTION('',(0.,0.,1.));
#344=DIRECTION('',(1.,0.,0.));
#345=DIRECTION('',(0.,0.,-1.));
#346=DIRECTION('',(-1.,0.,0.));
#347=DIRECTION('',(0.,0.,1.));
#348=DIRECTION('',(1.,0.,0.));
#349=DIRECTION('',(0.,0.,-1.));
#350=DIRECTION('',(0.,0.,1.));
#351=DIRECTION('',(1.,0.,0.));
#352=DIRECTION('',(0.,0.,-1.));
#353=DIRECTION('',(0.,1.,0.));
#354=DIRECTION('',(0.,0.,1.));
#355=DIRECTION('',(1.,0.,0.));
#356=DIRECTION('',(0.,0.,-1.));
#357=DIRECTION('',(1.,0.,0.));
#358=DIRECTION('',(0.,0.,-1.));
#359=DIRECTION('',(-1.,0.,0.));
#360=DIRECTION('',(0.,0.,1.));
#361=DIRECTION('',(1.,0.,0.));
#362=DIRECTION('',(0.,0.,-1.));
#363=DIRECTION('',(0.,0.,1.));
#364=DIRECTION('',(1.,0.,0.));
#365=DIRECTION('',(-1.,0.,0.));
#366=DIRECTION('',(0.,0.,1.));
#367=DIRECTION('',(0.,1.,0.));
#368=DIRECTION('',(0.,0.,-1.));
#369=DIRECTION('',(0.,1.,0.));
#370=DIRECTION('',(0.,0.,-1.));
#371=DIRECTION('',(-1.,0.,0.));
#372=DIRECTION('',(0.,0.,1.));
#373=DIRECTION('',(1.,0.,0.));
#374=DIRECTION('',(0.,0.,-1.));
#375=DIRECTION('',(0.,0.,1.));
#376=DIRECTION('',(1.,0.,0.));
#377=DIRECTION('',(8.46206573647223E-17,-1.,0.));
#378=DIRECTION('',(1.,8.46206573647223E-17,0.));
#379=DIRECTION('',(-1.,-8.46206573647223E-17,0.));
#380=DIRECTION('',(0.,0.,-1.));
#381=DIRECTION('',(-1.,-8.46206573647223E-17,0.));
#382=DIRECTION('',(0.,0.,-1.));
#383=DIRECTION('',(-1.,0.,0.));
#384=DIRECTION('',(0.,0.,1.));
#385=DIRECTION('',(1.,0.,0.));
#386=DIRECTION('',(0.,0.,-1.));
#387=DIRECTION('',(0.,0.,1.));
#388=DIRECTION('',(1.,0.,0.));
#389=DIRECTION('',(-1.,0.,0.));
#390=DIRECTION('',(0.,0.,1.));
#391=DIRECTION('',(0.,1.,0.));
#392=DIRECTION('',(0.,0.,-1.));
#393=DIRECTION('',(0.,1.,0.));
#394=DIRECTION('',(0.,0.,-1.));
#395=DIRECTION('',(-1.,0.,0.));
#396=DIRECTION('',(0.,0.,1.));
#397=DIRECTION('',(1.,0.,0.));
#398=DIRECTION('',(0.,0.,-1.));
#399=DIRECTION('',(0.,0.,1.));
#400=DIRECTION('',(1.,0.,0.));
#401=DIRECTION('',(1.26930986047083E-16,-1.,0.));
#402=DIRECTION('',(1.,1.26930986047083E-16,0.));
#403=DIRECTION('',(-1.,-1.26930986047083E-16,0.));
#404=DIRECTION('',(0.,0.,-1.));
#405=DIRECTION('',(-1.,-1.26930986047083E-16,0.));
#406=DIRECTION('',(0.,0.,-1.));
#407=DIRECTION('',(-1.,0.,0.));
#408=DIRECTION('',(0.,0.,1.));
#409=DIRECTION('',(1.,0.,0.));
#410=DIRECTION('',(0.,0.,-1.));
#411=DIRECTION('',(0.,0.,1.));
#412=DIRECTION('',(1.,0.,0.));
#413=DIRECTION('',(-1.,0.,0.));
#414=DIRECTION('',(0.,0.,1.));
#415=DIRECTION('',(0.,1.,0.));
#416=DIRECTION('',(0.,0.,-1.));
#417=DIRECTION('',(0.,1.,0.));
#418=DIRECTION('',(0.,0.,-1.));
#419=DIRECTION('',(-1.,0.,0.));
#420=DIRECTION('',(0.,0.,1.));
#421=DIRECTION('',(1.,0.,0.));
#422=DIRECTION('',(0.,0.,-1.));
#423=DIRECTION('',(0.,0.,1.));
#424=DIRECTION('',(1.,0.,0.));
#425=DIRECTION('',(0.,1.,0.));
#426=DIRECTION('',(0.,0.,1.));
#427=DIRECTION('',(1.,0.,0.));
#428=DIRECTION('',(1.,0.,0.));
#429=DIRECTION('',(0.,0.,1.));
#430=DIRECTION('',(1.,0.,0.));
#431=DIRECTION('',(0.,0.,1.));
#432=DIRECTION('',(1.,0.,0.));
#433=CARTESIAN_POINT('',(0.,0.,0.));
#434=CARTESIAN_POINT('',(-0.015,1.11109038636314E-15,0.0008128));
#435=CARTESIAN_POINT('',(-0.015,1.11109038636314E-15,0.));
#436=CARTESIAN_POINT('',(-0.0147690478086177,0.00424372019403916,0.));
#437=CARTESIAN_POINT('',(-0.0146488277667527,-0.00423546668769761,0.));
#438=CARTESIAN_POINT('',(-0.0147690478086177,0.00424372019403916,0.0008128));
#439=CARTESIAN_POINT('',(-0.0147690478086177,0.00424372019403916,0.0008128));
#440=CARTESIAN_POINT('',(-0.015,1.11109038636314E-15,0.0008128));
#441=CARTESIAN_POINT('',(-0.0146488277667527,-0.00423546668769761,0.0008128));
#442=CARTESIAN_POINT('',(-0.0146488277667527,-0.00423546668769761,0.0008128));
#443=CARTESIAN_POINT('',(0.00286547609569113,0.00424372019403916,0.0008128));
#444=CARTESIAN_POINT('',(0.00286547609569113,0.00424372019403916,0.));
#445=CARTESIAN_POINT('',(0.0205,0.00424372019403916,0.));
#446=CARTESIAN_POINT('',(0.0205,0.00424372019403916,0.0008128));
#447=CARTESIAN_POINT('',(0.0205,0.00424372019403916,0.0008128));
#448=CARTESIAN_POINT('',(0.00286547609569113,0.00424372019403916,0.0008128));
#449=CARTESIAN_POINT('',(0.0205,0.00574372019403916,0.0008128));
#450=CARTESIAN_POINT('',(0.0205,0.00574372019403916,0.));
#451=CARTESIAN_POINT('',(0.022,0.00574372019403916,0.));
#452=CARTESIAN_POINT('',(0.022,0.00574372019403916,0.0008128));
#453=CARTESIAN_POINT('',(0.022,0.00574372019403916,0.0008128));
#454=CARTESIAN_POINT('',(0.0205,0.00574372019403916,0.0008128));
#455=CARTESIAN_POINT('',(0.022,0.00712186009701958,0.0008128));
#456=CARTESIAN_POINT('',(0.022,0.00712186009701958,0.));
#457=CARTESIAN_POINT('',(0.022,0.0085,0.));
#458=CARTESIAN_POINT('',(0.022,0.0085,0.0008128));
#459=CARTESIAN_POINT('',(0.022,0.0085,0.0008128));
#460=CARTESIAN_POINT('',(0.022,0.00712186009701958,0.0008128));
#461=CARTESIAN_POINT('',(0.0205,0.0085,0.0008128));
#462=CARTESIAN_POINT('',(0.0205,0.0085,0.));
#463=CARTESIAN_POINT('',(0.0205,0.01,0.));
#464=CARTESIAN_POINT('',(0.0205,0.01,0.0008128));
#465=CARTESIAN_POINT('',(0.0205,0.01,0.0008128));
#466=CARTESIAN_POINT('',(0.0205,0.0085,0.0008128));
#467=CARTESIAN_POINT('',(0.,0.01,0.0008128));
#468=CARTESIAN_POINT('',(0.,0.01,0.));
#469=CARTESIAN_POINT('',(-0.0205,0.01,0.));
#470=CARTESIAN_POINT('',(-0.0205,0.01,0.0008128));
#471=CARTESIAN_POINT('',(-0.0205,0.01,0.0008128));
#472=CARTESIAN_POINT('',(0.,0.01,0.0008128));
#473=CARTESIAN_POINT('',(-0.0205,0.0085,0.0008128));
#474=CARTESIAN_POINT('',(-0.0205,0.0085,0.));
#475=CARTESIAN_POINT('',(-0.022,0.0085,0.));
#476=CARTESIAN_POINT('',(-0.022,0.0085,0.0008128));
#477=CARTESIAN_POINT('',(-0.022,0.0085,0.0008128));
#478=CARTESIAN_POINT('',(-0.0205,0.0085,0.0008128));
#479=CARTESIAN_POINT('',(-0.022,-5.20417042793042E-18,0.0008128));
#480=CARTESIAN_POINT('',(-0.022,-5.20417042793042E-18,0.));
#481=CARTESIAN_POINT('',(-0.022,-0.0085,0.));
#482=CARTESIAN_POINT('',(-0.022,-0.0085,0.0008128));
#483=CARTESIAN_POINT('',(-0.022,-0.0085,0.0008128));
#484=CARTESIAN_POINT('',(-0.022,-5.20417042793042E-18,0.0008128));
#485=CARTESIAN_POINT('',(-0.0205,-0.0085,0.0008128));
#486=CARTESIAN_POINT('',(-0.0205,-0.0085,0.));
#487=CARTESIAN_POINT('',(-0.0205,-0.01,0.));
#488=CARTESIAN_POINT('',(-0.0205,-0.01,0.0008128));
#489=CARTESIAN_POINT('',(-0.0205,-0.01,0.0008128));
#490=CARTESIAN_POINT('',(-0.0205,-0.0085,0.0008128));
#491=CARTESIAN_POINT('',(0.,-0.01,0.0008128));
#492=CARTESIAN_POINT('',(0.,-0.01,0.));
#493=CARTESIAN_POINT('',(0.0205,-0.01,0.));
#494=CARTESIAN_POINT('',(0.0205,-0.01,0.0008128));
#495=CARTESIAN_POINT('',(0.0205,-0.01,0.0008128));
#496=CARTESIAN_POINT('',(0.,-0.01,0.0008128));
#497=CARTESIAN_POINT('',(0.0205,-0.0085,0.0008128));
#498=CARTESIAN_POINT('',(0.0205,-0.0085,0.));
#499=CARTESIAN_POINT('',(0.022,-0.0085,0.));
#500=CARTESIAN_POINT('',(0.022,-0.0085,0.0008128));
#501=CARTESIAN_POINT('',(0.022,-0.0085,0.0008128));
#502=CARTESIAN_POINT('',(0.0205,-0.0085,0.0008128));
#503=CARTESIAN_POINT('',(0.022,-0.0071177333438488,0.0008128));
#504=CARTESIAN_POINT('',(0.022,-0.0071177333438488,0.));
#505=CARTESIAN_POINT('',(0.022,-0.00573546668769761,0.));
#506=CARTESIAN_POINT('',(0.022,-0.00573546668769761,0.0008128));
#507=CARTESIAN_POINT('',(0.022,-0.00573546668769761,0.0008128));
#508=CARTESIAN_POINT('',(0.022,-0.0071177333438488,0.0008128));
#509=CARTESIAN_POINT('',(0.0205,-0.00573546668769761,0.0008128));
#510=CARTESIAN_POINT('',(0.0205,-0.00573546668769761,0.));
#511=CARTESIAN_POINT('',(0.0205,-0.0042354666876976,0.));
#512=CARTESIAN_POINT('',(0.0205,-0.0042354666876976,0.0008128));
#513=CARTESIAN_POINT('',(0.0205,-0.0042354666876976,0.0008128));
#514=CARTESIAN_POINT('',(0.0205,-0.00573546668769761,0.0008128));
#515=CARTESIAN_POINT('',(0.00292558611662362,-0.00423546668769761,0.0008128));
#516=CARTESIAN_POINT('',(0.00292558611662362,-0.00423546668769761,0.));
#517=CARTESIAN_POINT('',(0.00292558611662362,-0.00423546668769761,0.0008128));
#518=CARTESIAN_POINT('',(0.,-3.46944695195361E-18,0.0008128));
#519=CARTESIAN_POINT('',(0.,-3.46944695195361E-18,0.));
#520=MECHANICAL_DESIGN_GEOMETRIC_PRESENTATION_REPRESENTATION('',(#301),
#521);
#521=(
GEOMETRIC_REPRESENTATION_CONTEXT(3)
GLOBAL_UNCERTAINTY_ASSIGNED_CONTEXT((#522))
GLOBAL_UNIT_ASSIGNED_CONTEXT((#525,#524,#523))
REPRESENTATION_CONTEXT('DSCH049-E032','TOP_LEVEL_ASSEMBLY_PART')
);
#522=UNCERTAINTY_MEASURE_WITH_UNIT(LENGTH_MEASURE(5.E-6),#525,
'DISTANCE_ACCURACY_VALUE','Maximum Tolerance applied to model');
#523=(
NAMED_UNIT(*)
SI_UNIT($,.STERADIAN.)
SOLID_ANGLE_UNIT()
);
#524=(
NAMED_UNIT(*)
PLANE_ANGLE_UNIT()
SI_UNIT($,.RADIAN.)
);
#525=(
LENGTH_UNIT()
NAMED_UNIT(*)
SI_UNIT($,.METRE.)
);
#526=PRODUCT_DEFINITION_SHAPE('','',#527);
#527=PRODUCT_DEFINITION('','',#529,#528);
#528=PRODUCT_DEFINITION_CONTEXT('',#535,'design');
#529=PRODUCT_DEFINITION_FORMATION_WITH_SPECIFIED_SOURCE('','',#531,
 .NOT_KNOWN.);
#530=PRODUCT_RELATED_PRODUCT_CATEGORY('','',(#531));
#531=PRODUCT('DSCH049-E032','DSCH049-E032','DSCH049-E032',(#533));
#532=PRODUCT_CATEGORY('','');
#533=PRODUCT_CONTEXT('',#535,'mechanical');
#534=APPLICATION_PROTOCOL_DEFINITION('international standard',
'ap242_managed_model_based_3d_engineering',2011,#535);
#535=APPLICATION_CONTEXT('managed model based 3d engineering');
ENDSEC;
END-ISO-10303-21;
