ISO-10303-21;
HEADER;
/* Generated by software containing ST-Developer
 * from STEP Tools, Inc. (www.steptools.com) 
 */
/* OPTION: using custom renumber hook */

FILE_DESCRIPTION(
/* description */ ('STEP AP242',
'CAx-IF Rec.Pracs.---Representation and Presentation of Product Manufa
cturing Information (PMI)---4.0---2014-10-13',
'CAx-IF Rec.Pracs.---3D Tessellated Geometry---0.4---2014-09-14','2;1'),

/* implementation_level */ '2;1');

FILE_NAME(
/* name */ '627a62836592a2203acb54f5',
/* time_stamp */ '2022-05-10T13:02:59+00:00',
/* author */ (''),
/* organization */ (''),
/* preprocessor_version */ 'ST-DEVELOPER v18.101',
/* originating_system */ '  ',
/* authorisation */ '  ');

FILE_SCHEMA (('AP242_MANAGED_MODEL_BASED_3D_ENGINEERING_MIM_LF { 1 0 10303 442 1 1 4 }'));
ENDSEC;

DATA;
#10=SHAPE_REPRESENTATION_RELATIONSHIP('','',#351,#11);
#11=ADVANCED_BREP_SHAPE_REPRESENTATION('',(#349),#589);
#12=PLANE('',#356);
#13=PLANE('',#360);
#14=PLANE('',#364);
#15=PLANE('',#368);
#16=PLANE('',#372);
#17=PLANE('',#376);
#18=PLANE('',#380);
#19=PLANE('',#384);
#20=PLANE('',#385);
#21=PLANE('',#386);
#22=LINE('',#494,#54);
#23=LINE('',#498,#55);
#24=LINE('',#500,#56);
#25=LINE('',#502,#57);
#26=LINE('',#504,#58);
#27=LINE('',#508,#59);
#28=LINE('',#512,#60);
#29=LINE('',#514,#61);
#30=LINE('',#516,#62);
#31=LINE('',#520,#63);
#32=LINE('',#524,#64);
#33=LINE('',#526,#65);
#34=LINE('',#528,#66);
#35=LINE('',#532,#67);
#36=LINE('',#536,#68);
#37=LINE('',#538,#69);
#38=LINE('',#540,#70);
#39=LINE('',#544,#71);
#40=LINE('',#548,#72);
#41=LINE('',#550,#73);
#42=LINE('',#552,#74);
#43=LINE('',#556,#75);
#44=LINE('',#560,#76);
#45=LINE('',#562,#77);
#46=LINE('',#564,#78);
#47=LINE('',#568,#79);
#48=LINE('',#572,#80);
#49=LINE('',#574,#81);
#50=LINE('',#576,#82);
#51=LINE('',#580,#83);
#52=LINE('',#584,#84);
#53=LINE('',#585,#85);
#54=VECTOR('',#393,1.);
#55=VECTOR('',#396,1.);
#56=VECTOR('',#399,1.);
#57=VECTOR('',#400,1.);
#58=VECTOR('',#401,1.);
#59=VECTOR('',#406,1.);
#60=VECTOR('',#411,1.);
#61=VECTOR('',#412,1.);
#62=VECTOR('',#413,1.);
#63=VECTOR('',#418,1.);
#64=VECTOR('',#423,1.);
#65=VECTOR('',#424,1.);
#66=VECTOR('',#425,1.);
#67=VECTOR('',#430,1.);
#68=VECTOR('',#435,1.);
#69=VECTOR('',#436,1.);
#70=VECTOR('',#437,1.);
#71=VECTOR('',#442,1.);
#72=VECTOR('',#447,1.);
#73=VECTOR('',#448,1.);
#74=VECTOR('',#449,1.);
#75=VECTOR('',#454,1.);
#76=VECTOR('',#459,1.);
#77=VECTOR('',#460,1.);
#78=VECTOR('',#461,1.);
#79=VECTOR('',#466,1.);
#80=VECTOR('',#471,1.);
#81=VECTOR('',#472,1.);
#82=VECTOR('',#473,1.);
#83=VECTOR('',#478,1.);
#84=VECTOR('',#483,1.);
#85=VECTOR('',#484,1.);
#86=ORIENTED_EDGE('',*,*,#182,.F.);
#87=ORIENTED_EDGE('',*,*,#183,.F.);
#88=ORIENTED_EDGE('',*,*,#184,.T.);
#89=ORIENTED_EDGE('',*,*,#185,.T.);
#90=ORIENTED_EDGE('',*,*,#186,.T.);
#91=ORIENTED_EDGE('',*,*,#187,.F.);
#92=ORIENTED_EDGE('',*,*,#188,.F.);
#93=ORIENTED_EDGE('',*,*,#183,.T.);
#94=ORIENTED_EDGE('',*,*,#189,.T.);
#95=ORIENTED_EDGE('',*,*,#190,.F.);
#96=ORIENTED_EDGE('',*,*,#191,.F.);
#97=ORIENTED_EDGE('',*,*,#187,.T.);
#98=ORIENTED_EDGE('',*,*,#192,.F.);
#99=ORIENTED_EDGE('',*,*,#193,.F.);
#100=ORIENTED_EDGE('',*,*,#194,.T.);
#101=ORIENTED_EDGE('',*,*,#190,.T.);
#102=ORIENTED_EDGE('',*,*,#195,.T.);
#103=ORIENTED_EDGE('',*,*,#196,.F.);
#104=ORIENTED_EDGE('',*,*,#197,.F.);
#105=ORIENTED_EDGE('',*,*,#193,.T.);
#106=ORIENTED_EDGE('',*,*,#198,.F.);
#107=ORIENTED_EDGE('',*,*,#199,.F.);
#108=ORIENTED_EDGE('',*,*,#200,.T.);
#109=ORIENTED_EDGE('',*,*,#196,.T.);
#110=ORIENTED_EDGE('',*,*,#201,.T.);
#111=ORIENTED_EDGE('',*,*,#202,.F.);
#112=ORIENTED_EDGE('',*,*,#203,.F.);
#113=ORIENTED_EDGE('',*,*,#199,.T.);
#114=ORIENTED_EDGE('',*,*,#204,.T.);
#115=ORIENTED_EDGE('',*,*,#205,.F.);
#116=ORIENTED_EDGE('',*,*,#206,.F.);
#117=ORIENTED_EDGE('',*,*,#202,.T.);
#118=ORIENTED_EDGE('',*,*,#207,.T.);
#119=ORIENTED_EDGE('',*,*,#208,.F.);
#120=ORIENTED_EDGE('',*,*,#209,.F.);
#121=ORIENTED_EDGE('',*,*,#205,.T.);
#122=ORIENTED_EDGE('',*,*,#210,.F.);
#123=ORIENTED_EDGE('',*,*,#211,.F.);
#124=ORIENTED_EDGE('',*,*,#212,.T.);
#125=ORIENTED_EDGE('',*,*,#208,.T.);
#126=ORIENTED_EDGE('',*,*,#213,.T.);
#127=ORIENTED_EDGE('',*,*,#214,.F.);
#128=ORIENTED_EDGE('',*,*,#215,.F.);
#129=ORIENTED_EDGE('',*,*,#211,.T.);
#130=ORIENTED_EDGE('',*,*,#216,.T.);
#131=ORIENTED_EDGE('',*,*,#217,.F.);
#132=ORIENTED_EDGE('',*,*,#218,.F.);
#133=ORIENTED_EDGE('',*,*,#214,.T.);
#134=ORIENTED_EDGE('',*,*,#219,.T.);
#135=ORIENTED_EDGE('',*,*,#220,.F.);
#136=ORIENTED_EDGE('',*,*,#221,.F.);
#137=ORIENTED_EDGE('',*,*,#217,.T.);
#138=ORIENTED_EDGE('',*,*,#222,.T.);
#139=ORIENTED_EDGE('',*,*,#223,.F.);
#140=ORIENTED_EDGE('',*,*,#224,.F.);
#141=ORIENTED_EDGE('',*,*,#220,.T.);
#142=ORIENTED_EDGE('',*,*,#225,.T.);
#143=ORIENTED_EDGE('',*,*,#226,.F.);
#144=ORIENTED_EDGE('',*,*,#227,.F.);
#145=ORIENTED_EDGE('',*,*,#223,.T.);
#146=ORIENTED_EDGE('',*,*,#228,.F.);
#147=ORIENTED_EDGE('',*,*,#185,.F.);
#148=ORIENTED_EDGE('',*,*,#229,.T.);
#149=ORIENTED_EDGE('',*,*,#226,.T.);
#150=ORIENTED_EDGE('',*,*,#184,.F.);
#151=ORIENTED_EDGE('',*,*,#188,.T.);
#152=ORIENTED_EDGE('',*,*,#191,.T.);
#153=ORIENTED_EDGE('',*,*,#194,.F.);
#154=ORIENTED_EDGE('',*,*,#197,.T.);
#155=ORIENTED_EDGE('',*,*,#200,.F.);
#156=ORIENTED_EDGE('',*,*,#203,.T.);
#157=ORIENTED_EDGE('',*,*,#206,.T.);
#158=ORIENTED_EDGE('',*,*,#209,.T.);
#159=ORIENTED_EDGE('',*,*,#212,.F.);
#160=ORIENTED_EDGE('',*,*,#215,.T.);
#161=ORIENTED_EDGE('',*,*,#218,.T.);
#162=ORIENTED_EDGE('',*,*,#221,.T.);
#163=ORIENTED_EDGE('',*,*,#224,.T.);
#164=ORIENTED_EDGE('',*,*,#227,.T.);
#165=ORIENTED_EDGE('',*,*,#229,.F.);
#166=ORIENTED_EDGE('',*,*,#182,.T.);
#167=ORIENTED_EDGE('',*,*,#228,.T.);
#168=ORIENTED_EDGE('',*,*,#225,.F.);
#169=ORIENTED_EDGE('',*,*,#222,.F.);
#170=ORIENTED_EDGE('',*,*,#219,.F.);
#171=ORIENTED_EDGE('',*,*,#216,.F.);
#172=ORIENTED_EDGE('',*,*,#213,.F.);
#173=ORIENTED_EDGE('',*,*,#210,.T.);
#174=ORIENTED_EDGE('',*,*,#207,.F.);
#175=ORIENTED_EDGE('',*,*,#204,.F.);
#176=ORIENTED_EDGE('',*,*,#201,.F.);
#177=ORIENTED_EDGE('',*,*,#198,.T.);
#178=ORIENTED_EDGE('',*,*,#195,.F.);
#179=ORIENTED_EDGE('',*,*,#192,.T.);
#180=ORIENTED_EDGE('',*,*,#189,.F.);
#181=ORIENTED_EDGE('',*,*,#186,.F.);
#182=EDGE_CURVE('',#230,#231,#262,.T.);
#183=EDGE_CURVE('',#232,#230,#22,.T.);
#184=EDGE_CURVE('',#232,#233,#263,.T.);
#185=EDGE_CURVE('',#233,#231,#23,.T.);
#186=EDGE_CURVE('',#230,#234,#24,.T.);
#187=EDGE_CURVE('',#235,#234,#25,.T.);
#188=EDGE_CURVE('',#232,#235,#26,.T.);
#189=EDGE_CURVE('',#234,#236,#264,.T.);
#190=EDGE_CURVE('',#237,#236,#27,.T.);
#191=EDGE_CURVE('',#235,#237,#265,.T.);
#192=EDGE_CURVE('',#238,#236,#28,.T.);
#193=EDGE_CURVE('',#239,#238,#29,.T.);
#194=EDGE_CURVE('',#239,#237,#30,.T.);
#195=EDGE_CURVE('',#238,#240,#266,.T.);
#196=EDGE_CURVE('',#241,#240,#31,.T.);
#197=EDGE_CURVE('',#239,#241,#267,.T.);
#198=EDGE_CURVE('',#242,#240,#32,.T.);
#199=EDGE_CURVE('',#243,#242,#33,.T.);
#200=EDGE_CURVE('',#243,#241,#34,.T.);
#201=EDGE_CURVE('',#242,#244,#268,.T.);
#202=EDGE_CURVE('',#245,#244,#35,.T.);
#203=EDGE_CURVE('',#243,#245,#269,.T.);
#204=EDGE_CURVE('',#244,#246,#36,.T.);
#205=EDGE_CURVE('',#247,#246,#37,.T.);
#206=EDGE_CURVE('',#245,#247,#38,.T.);
#207=EDGE_CURVE('',#246,#248,#270,.T.);
#208=EDGE_CURVE('',#249,#248,#39,.T.);
#209=EDGE_CURVE('',#247,#249,#271,.T.);
#210=EDGE_CURVE('',#250,#248,#40,.T.);
#211=EDGE_CURVE('',#251,#250,#41,.T.);
#212=EDGE_CURVE('',#251,#249,#42,.T.);
#213=EDGE_CURVE('',#250,#252,#272,.T.);
#214=EDGE_CURVE('',#253,#252,#43,.T.);
#215=EDGE_CURVE('',#251,#253,#273,.T.);
#216=EDGE_CURVE('',#252,#254,#44,.T.);
#217=EDGE_CURVE('',#255,#254,#45,.T.);
#218=EDGE_CURVE('',#253,#255,#46,.T.);
#219=EDGE_CURVE('',#254,#256,#274,.T.);
#220=EDGE_CURVE('',#257,#256,#47,.T.);
#221=EDGE_CURVE('',#255,#257,#275,.T.);
#222=EDGE_CURVE('',#256,#258,#48,.T.);
#223=EDGE_CURVE('',#259,#258,#49,.T.);
#224=EDGE_CURVE('',#257,#259,#50,.T.);
#225=EDGE_CURVE('',#258,#260,#276,.T.);
#226=EDGE_CURVE('',#261,#260,#51,.T.);
#227=EDGE_CURVE('',#259,#261,#277,.T.);
#228=EDGE_CURVE('',#231,#260,#52,.T.);
#229=EDGE_CURVE('',#233,#261,#53,.T.);
#230=VERTEX_POINT('',#492);
#231=VERTEX_POINT('',#493);
#232=VERTEX_POINT('',#495);
#233=VERTEX_POINT('',#497);
#234=VERTEX_POINT('',#501);
#235=VERTEX_POINT('',#503);
#236=VERTEX_POINT('',#507);
#237=VERTEX_POINT('',#509);
#238=VERTEX_POINT('',#513);
#239=VERTEX_POINT('',#515);
#240=VERTEX_POINT('',#519);
#241=VERTEX_POINT('',#521);
#242=VERTEX_POINT('',#525);
#243=VERTEX_POINT('',#527);
#244=VERTEX_POINT('',#531);
#245=VERTEX_POINT('',#533);
#246=VERTEX_POINT('',#537);
#247=VERTEX_POINT('',#539);
#248=VERTEX_POINT('',#543);
#249=VERTEX_POINT('',#545);
#250=VERTEX_POINT('',#549);
#251=VERTEX_POINT('',#551);
#252=VERTEX_POINT('',#555);
#253=VERTEX_POINT('',#557);
#254=VERTEX_POINT('',#561);
#255=VERTEX_POINT('',#563);
#256=VERTEX_POINT('',#567);
#257=VERTEX_POINT('',#569);
#258=VERTEX_POINT('',#573);
#259=VERTEX_POINT('',#575);
#260=VERTEX_POINT('',#579);
#261=VERTEX_POINT('',#581);
#262=CIRCLE('',#354,0.0045);
#263=CIRCLE('',#355,0.0045);
#264=CIRCLE('',#358,0.00125);
#265=CIRCLE('',#359,0.00125);
#266=CIRCLE('',#362,0.0015);
#267=CIRCLE('',#363,0.0015);
#268=CIRCLE('',#366,0.0015);
#269=CIRCLE('',#367,0.0015);
#270=CIRCLE('',#370,0.00125);
#271=CIRCLE('',#371,0.00125);
#272=CIRCLE('',#374,0.0045);
#273=CIRCLE('',#375,0.0045);
#274=CIRCLE('',#378,0.0015);
#275=CIRCLE('',#379,0.0015);
#276=CIRCLE('',#382,0.0015);
#277=CIRCLE('',#383,0.0015);
#278=EDGE_LOOP('',(#86,#87,#88,#89));
#279=EDGE_LOOP('',(#90,#91,#92,#93));
#280=EDGE_LOOP('',(#94,#95,#96,#97));
#281=EDGE_LOOP('',(#98,#99,#100,#101));
#282=EDGE_LOOP('',(#102,#103,#104,#105));
#283=EDGE_LOOP('',(#106,#107,#108,#109));
#284=EDGE_LOOP('',(#110,#111,#112,#113));
#285=EDGE_LOOP('',(#114,#115,#116,#117));
#286=EDGE_LOOP('',(#118,#119,#120,#121));
#287=EDGE_LOOP('',(#122,#123,#124,#125));
#288=EDGE_LOOP('',(#126,#127,#128,#129));
#289=EDGE_LOOP('',(#130,#131,#132,#133));
#290=EDGE_LOOP('',(#134,#135,#136,#137));
#291=EDGE_LOOP('',(#138,#139,#140,#141));
#292=EDGE_LOOP('',(#142,#143,#144,#145));
#293=EDGE_LOOP('',(#146,#147,#148,#149));
#294=EDGE_LOOP('',(#150,#151,#152,#153,#154,#155,#156,#157,#158,#159,#160,
#161,#162,#163,#164,#165));
#295=EDGE_LOOP('',(#166,#167,#168,#169,#170,#171,#172,#173,#174,#175,#176,
#177,#178,#179,#180,#181));
#296=FACE_BOUND('',#278,.T.);
#297=FACE_BOUND('',#279,.T.);
#298=FACE_BOUND('',#280,.T.);
#299=FACE_BOUND('',#281,.T.);
#300=FACE_BOUND('',#282,.T.);
#301=FACE_BOUND('',#283,.T.);
#302=FACE_BOUND('',#284,.T.);
#303=FACE_BOUND('',#285,.T.);
#304=FACE_BOUND('',#286,.T.);
#305=FACE_BOUND('',#287,.T.);
#306=FACE_BOUND('',#288,.T.);
#307=FACE_BOUND('',#289,.T.);
#308=FACE_BOUND('',#290,.T.);
#309=FACE_BOUND('',#291,.T.);
#310=FACE_BOUND('',#292,.T.);
#311=FACE_BOUND('',#293,.T.);
#312=FACE_BOUND('',#294,.T.);
#313=FACE_BOUND('',#295,.T.);
#314=CYLINDRICAL_SURFACE('',#353,0.0045);
#315=CYLINDRICAL_SURFACE('',#357,0.00125);
#316=CYLINDRICAL_SURFACE('',#361,0.0015);
#317=CYLINDRICAL_SURFACE('',#365,0.0015);
#318=CYLINDRICAL_SURFACE('',#369,0.00125);
#319=CYLINDRICAL_SURFACE('',#373,0.0045);
#320=CYLINDRICAL_SURFACE('',#377,0.0015);
#321=CYLINDRICAL_SURFACE('',#381,0.0015);
#322=ADVANCED_FACE('',(#296),#314,.F.);
#323=ADVANCED_FACE('',(#297),#12,.F.);
#324=ADVANCED_FACE('',(#298),#315,.T.);
#325=ADVANCED_FACE('',(#299),#13,.T.);
#326=ADVANCED_FACE('',(#300),#316,.T.);
#327=ADVANCED_FACE('',(#301),#14,.T.);
#328=ADVANCED_FACE('',(#302),#317,.T.);
#329=ADVANCED_FACE('',(#303),#15,.F.);
#330=ADVANCED_FACE('',(#304),#318,.T.);
#331=ADVANCED_FACE('',(#305),#16,.T.);
#332=ADVANCED_FACE('',(#306),#319,.F.);
#333=ADVANCED_FACE('',(#307),#17,.F.);
#334=ADVANCED_FACE('',(#308),#320,.T.);
#335=ADVANCED_FACE('',(#309),#18,.F.);
#336=ADVANCED_FACE('',(#310),#321,.T.);
#337=ADVANCED_FACE('',(#311),#19,.T.);
#338=ADVANCED_FACE('',(#312),#20,.T.);
#339=ADVANCED_FACE('',(#313),#21,.F.);
#340=CLOSED_SHELL('',(#322,#323,#324,#325,#326,#327,#328,#329,#330,#331,
#332,#333,#334,#335,#336,#337,#338,#339));
#341=STYLED_ITEM('',(#342),#349);
#342=PRESENTATION_STYLE_ASSIGNMENT((#343));
#343=SURFACE_STYLE_USAGE(.BOTH.,#344);
#344=SURFACE_SIDE_STYLE('',(#345));
#345=SURFACE_STYLE_FILL_AREA(#346);
#346=FILL_AREA_STYLE('',(#347));
#347=FILL_AREA_STYLE_COLOUR('',#348);
#348=COLOUR_RGB('',0.917647058823529,0.917647058823529,0.917647058823529);
#349=MANIFOLD_SOLID_BREP('DSCH052-E062',#340);
#350=SHAPE_DEFINITION_REPRESENTATION(#594,#351);
#351=SHAPE_REPRESENTATION('DSCH052-E062',(#352),#589);
#352=AXIS2_PLACEMENT_3D('',#489,#387,#388);
#353=AXIS2_PLACEMENT_3D('',#490,#389,#390);
#354=AXIS2_PLACEMENT_3D('',#491,#391,#392);
#355=AXIS2_PLACEMENT_3D('',#496,#394,#395);
#356=AXIS2_PLACEMENT_3D('',#499,#397,#398);
#357=AXIS2_PLACEMENT_3D('',#505,#402,#403);
#358=AXIS2_PLACEMENT_3D('',#506,#404,#405);
#359=AXIS2_PLACEMENT_3D('',#510,#407,#408);
#360=AXIS2_PLACEMENT_3D('',#511,#409,#410);
#361=AXIS2_PLACEMENT_3D('',#517,#414,#415);
#362=AXIS2_PLACEMENT_3D('',#518,#416,#417);
#363=AXIS2_PLACEMENT_3D('',#522,#419,#420);
#364=AXIS2_PLACEMENT_3D('',#523,#421,#422);
#365=AXIS2_PLACEMENT_3D('',#529,#426,#427);
#366=AXIS2_PLACEMENT_3D('',#530,#428,#429);
#367=AXIS2_PLACEMENT_3D('',#534,#431,#432);
#368=AXIS2_PLACEMENT_3D('',#535,#433,#434);
#369=AXIS2_PLACEMENT_3D('',#541,#438,#439);
#370=AXIS2_PLACEMENT_3D('',#542,#440,#441);
#371=AXIS2_PLACEMENT_3D('',#546,#443,#444);
#372=AXIS2_PLACEMENT_3D('',#547,#445,#446);
#373=AXIS2_PLACEMENT_3D('',#553,#450,#451);
#374=AXIS2_PLACEMENT_3D('',#554,#452,#453);
#375=AXIS2_PLACEMENT_3D('',#558,#455,#456);
#376=AXIS2_PLACEMENT_3D('',#559,#457,#458);
#377=AXIS2_PLACEMENT_3D('',#565,#462,#463);
#378=AXIS2_PLACEMENT_3D('',#566,#464,#465);
#379=AXIS2_PLACEMENT_3D('',#570,#467,#468);
#380=AXIS2_PLACEMENT_3D('',#571,#469,#470);
#381=AXIS2_PLACEMENT_3D('',#577,#474,#475);
#382=AXIS2_PLACEMENT_3D('',#578,#476,#477);
#383=AXIS2_PLACEMENT_3D('',#582,#479,#480);
#384=AXIS2_PLACEMENT_3D('',#583,#481,#482);
#385=AXIS2_PLACEMENT_3D('',#586,#485,#486);
#386=AXIS2_PLACEMENT_3D('',#587,#487,#488);
#387=DIRECTION('',(0.,0.,1.));
#388=DIRECTION('',(1.,0.,0.));
#389=DIRECTION('',(0.,0.,-1.));
#390=DIRECTION('',(-1.,0.,0.));
#391=DIRECTION('',(0.,0.,1.));
#392=DIRECTION('',(1.,0.,0.));
#393=DIRECTION('',(0.,0.,-1.));
#394=DIRECTION('',(0.,0.,1.));
#395=DIRECTION('',(1.,0.,0.));
#396=DIRECTION('',(0.,0.,-1.));
#397=DIRECTION('',(-1.,0.,0.));
#398=DIRECTION('',(0.,0.,1.));
#399=DIRECTION('',(0.,1.,0.));
#400=DIRECTION('',(0.,0.,-1.));
#401=DIRECTION('',(0.,1.,0.));
#402=DIRECTION('',(0.,0.,-1.));
#403=DIRECTION('',(-1.,0.,0.));
#404=DIRECTION('',(0.,0.,1.));
#405=DIRECTION('',(1.,0.,0.));
#406=DIRECTION('',(0.,0.,-1.));
#407=DIRECTION('',(0.,0.,1.));
#408=DIRECTION('',(1.,0.,0.));
#409=DIRECTION('',(-1.,0.,0.));
#410=DIRECTION('',(0.,0.,1.));
#411=DIRECTION('',(0.,1.,0.));
#412=DIRECTION('',(0.,0.,-1.));
#413=DIRECTION('',(0.,1.,0.));
#414=DIRECTION('',(0.,0.,-1.));
#415=DIRECTION('',(-1.,0.,0.));
#416=DIRECTION('',(0.,0.,1.));
#417=DIRECTION('',(1.,0.,0.));
#418=DIRECTION('',(0.,0.,-1.));
#419=DIRECTION('',(0.,0.,1.));
#420=DIRECTION('',(1.,0.,0.));
#421=DIRECTION('',(1.36056743213867E-16,-1.,0.));
#422=DIRECTION('',(1.,1.36056743213867E-16,0.));
#423=DIRECTION('',(-1.,-1.36056743213867E-16,0.));
#424=DIRECTION('',(0.,0.,-1.));
#425=DIRECTION('',(-1.,-1.36056743213867E-16,0.));
#426=DIRECTION('',(0.,0.,-1.));
#427=DIRECTION('',(-1.,0.,0.));
#428=DIRECTION('',(0.,0.,1.));
#429=DIRECTION('',(1.,0.,0.));
#430=DIRECTION('',(0.,0.,-1.));
#431=DIRECTION('',(0.,0.,1.));
#432=DIRECTION('',(1.,0.,0.));
#433=DIRECTION('',(-1.,0.,0.));
#434=DIRECTION('',(0.,0.,1.));
#435=DIRECTION('',(0.,1.,0.));
#436=DIRECTION('',(0.,0.,-1.));
#437=DIRECTION('',(0.,1.,0.));
#438=DIRECTION('',(0.,0.,-1.));
#439=DIRECTION('',(-1.,0.,0.));
#440=DIRECTION('',(0.,0.,1.));
#441=DIRECTION('',(1.,0.,0.));
#442=DIRECTION('',(0.,0.,-1.));
#443=DIRECTION('',(0.,0.,1.));
#444=DIRECTION('',(1.,0.,0.));
#445=DIRECTION('',(-1.,0.,0.));
#446=DIRECTION('',(0.,0.,1.));
#447=DIRECTION('',(0.,1.,0.));
#448=DIRECTION('',(0.,0.,-1.));
#449=DIRECTION('',(0.,1.,0.));
#450=DIRECTION('',(0.,0.,-1.));
#451=DIRECTION('',(-1.,0.,0.));
#452=DIRECTION('',(0.,0.,-1.));
#453=DIRECTION('',(1.,0.,0.));
#454=DIRECTION('',(0.,0.,-1.));
#455=DIRECTION('',(0.,0.,-1.));
#456=DIRECTION('',(1.,0.,0.));
#457=DIRECTION('',(-1.,0.,0.));
#458=DIRECTION('',(0.,0.,1.));
#459=DIRECTION('',(0.,1.,0.));
#460=DIRECTION('',(0.,0.,-1.));
#461=DIRECTION('',(0.,1.,0.));
#462=DIRECTION('',(0.,0.,-1.));
#463=DIRECTION('',(-1.,0.,0.));
#464=DIRECTION('',(0.,0.,1.));
#465=DIRECTION('',(1.,0.,0.));
#466=DIRECTION('',(0.,0.,-1.));
#467=DIRECTION('',(0.,0.,1.));
#468=DIRECTION('',(1.,0.,0.));
#469=DIRECTION('',(0.,-1.,0.));
#470=DIRECTION('',(0.,0.,-1.));
#471=DIRECTION('',(-1.,0.,0.));
#472=DIRECTION('',(0.,0.,-1.));
#473=DIRECTION('',(-1.,0.,0.));
#474=DIRECTION('',(0.,0.,-1.));
#475=DIRECTION('',(-1.,0.,0.));
#476=DIRECTION('',(0.,0.,1.));
#477=DIRECTION('',(1.,0.,0.));
#478=DIRECTION('',(0.,0.,-1.));
#479=DIRECTION('',(0.,0.,1.));
#480=DIRECTION('',(1.,0.,0.));
#481=DIRECTION('',(-1.,0.,0.));
#482=DIRECTION('',(0.,0.,1.));
#483=DIRECTION('',(0.,1.,0.));
#484=DIRECTION('',(0.,1.,0.));
#485=DIRECTION('',(0.,0.,1.));
#486=DIRECTION('',(1.,0.,0.));
#487=DIRECTION('',(0.,0.,1.));
#488=DIRECTION('',(1.,0.,0.));
#489=CARTESIAN_POINT('',(0.,0.,0.));
#490=CARTESIAN_POINT('',(-0.02,-0.01,0.0015748));
#491=CARTESIAN_POINT('',(-0.02,-0.01,0.));
#492=CARTESIAN_POINT('',(-0.0245,-0.01,0.));
#493=CARTESIAN_POINT('',(-0.0155,-0.01,0.));
#494=CARTESIAN_POINT('',(-0.0245,-0.01,0.0015748));
#495=CARTESIAN_POINT('',(-0.0245,-0.01,0.0015748));
#496=CARTESIAN_POINT('',(-0.02,-0.01,0.0015748));
#497=CARTESIAN_POINT('',(-0.0155,-0.01,0.0015748));
#498=CARTESIAN_POINT('',(-0.0155,-0.01,0.0015748));
#499=CARTESIAN_POINT('',(-0.0245,0.003375,0.0015748));
#500=CARTESIAN_POINT('',(-0.0245,0.003375,0.));
#501=CARTESIAN_POINT('',(-0.0245,0.01675,0.));
#502=CARTESIAN_POINT('',(-0.0245,0.01675,0.0015748));
#503=CARTESIAN_POINT('',(-0.0245,0.01675,0.0015748));
#504=CARTESIAN_POINT('',(-0.0245,0.003375,0.0015748));
#505=CARTESIAN_POINT('',(-0.02575,0.01675,0.0015748));
#506=CARTESIAN_POINT('',(-0.02575,0.01675,0.));
#507=CARTESIAN_POINT('',(-0.027,0.01675,0.));
#508=CARTESIAN_POINT('',(-0.027,0.01675,0.0015748));
#509=CARTESIAN_POINT('',(-0.027,0.01675,0.0015748));
#510=CARTESIAN_POINT('',(-0.02575,0.01675,0.0015748));
#511=CARTESIAN_POINT('',(-0.027,0.000125,0.0015748));
#512=CARTESIAN_POINT('',(-0.027,0.000125,0.));
#513=CARTESIAN_POINT('',(-0.027,-0.0165,0.));
#514=CARTESIAN_POINT('',(-0.027,-0.0165,0.0015748));
#515=CARTESIAN_POINT('',(-0.027,-0.0165,0.0015748));
#516=CARTESIAN_POINT('',(-0.027,0.000125,0.0015748));
#517=CARTESIAN_POINT('',(-0.0255,-0.0165,0.0015748));
#518=CARTESIAN_POINT('',(-0.0255,-0.0165,0.));
#519=CARTESIAN_POINT('',(-0.0255,-0.018,0.));
#520=CARTESIAN_POINT('',(-0.0255,-0.018,0.0015748));
#521=CARTESIAN_POINT('',(-0.0255,-0.018,0.0015748));
#522=CARTESIAN_POINT('',(-0.0255,-0.0165,0.0015748));
#523=CARTESIAN_POINT('',(0.,-0.018,0.0015748));
#524=CARTESIAN_POINT('',(0.,-0.018,0.));
#525=CARTESIAN_POINT('',(0.0255,-0.018,0.));
#526=CARTESIAN_POINT('',(0.0255,-0.018,0.0015748));
#527=CARTESIAN_POINT('',(0.0255,-0.018,0.0015748));
#528=CARTESIAN_POINT('',(0.,-0.018,0.0015748));
#529=CARTESIAN_POINT('',(0.0255,-0.0165,0.0015748));
#530=CARTESIAN_POINT('',(0.0255,-0.0165,0.));
#531=CARTESIAN_POINT('',(0.027,-0.0165,0.));
#532=CARTESIAN_POINT('',(0.027,-0.0165,0.0015748));
#533=CARTESIAN_POINT('',(0.027,-0.0165,0.0015748));
#534=CARTESIAN_POINT('',(0.0255,-0.0165,0.0015748));
#535=CARTESIAN_POINT('',(0.027,0.000125,0.0015748));
#536=CARTESIAN_POINT('',(0.027,0.000125,0.));
#537=CARTESIAN_POINT('',(0.027,0.01675,0.));
#538=CARTESIAN_POINT('',(0.027,0.01675,0.0015748));
#539=CARTESIAN_POINT('',(0.027,0.01675,0.0015748));
#540=CARTESIAN_POINT('',(0.027,0.000125,0.0015748));
#541=CARTESIAN_POINT('',(0.02575,0.01675,0.0015748));
#542=CARTESIAN_POINT('',(0.02575,0.01675,0.));
#543=CARTESIAN_POINT('',(0.0245,0.01675,0.));
#544=CARTESIAN_POINT('',(0.0245,0.01675,0.0015748));
#545=CARTESIAN_POINT('',(0.0245,0.01675,0.0015748));
#546=CARTESIAN_POINT('',(0.02575,0.01675,0.0015748));
#547=CARTESIAN_POINT('',(0.0245,0.003375,0.0015748));
#548=CARTESIAN_POINT('',(0.0245,0.003375,0.));
#549=CARTESIAN_POINT('',(0.0245,-0.01,0.));
#550=CARTESIAN_POINT('',(0.0245,-0.01,0.0015748));
#551=CARTESIAN_POINT('',(0.0245,-0.01,0.0015748));
#552=CARTESIAN_POINT('',(0.0245,0.003375,0.0015748));
#553=CARTESIAN_POINT('',(0.02,-0.01,0.0015748));
#554=CARTESIAN_POINT('',(0.02,-0.01,0.));
#555=CARTESIAN_POINT('',(0.0155,-0.01,0.));
#556=CARTESIAN_POINT('',(0.0155,-0.01,0.0015748));
#557=CARTESIAN_POINT('',(0.0155,-0.01,0.0015748));
#558=CARTESIAN_POINT('',(0.02,-0.01,0.0015748));
#559=CARTESIAN_POINT('',(0.0155,0.00325,0.0015748));
#560=CARTESIAN_POINT('',(0.0155,0.00325,0.));
#561=CARTESIAN_POINT('',(0.0155,0.0165,0.));
#562=CARTESIAN_POINT('',(0.0155,0.0165,0.0015748));
#563=CARTESIAN_POINT('',(0.0155,0.0165,0.0015748));
#564=CARTESIAN_POINT('',(0.0155,0.00325,0.0015748));
#565=CARTESIAN_POINT('',(0.014,0.0165,0.0015748));
#566=CARTESIAN_POINT('',(0.014,0.0165,0.));
#567=CARTESIAN_POINT('',(0.014,0.018,0.));
#568=CARTESIAN_POINT('',(0.014,0.018,0.0015748));
#569=CARTESIAN_POINT('',(0.014,0.018,0.0015748));
#570=CARTESIAN_POINT('',(0.014,0.0165,0.0015748));
#571=CARTESIAN_POINT('',(0.,0.018,0.0015748));
#572=CARTESIAN_POINT('',(0.,0.018,0.));
#573=CARTESIAN_POINT('',(-0.014,0.018,0.));
#574=CARTESIAN_POINT('',(-0.014,0.018,0.0015748));
#575=CARTESIAN_POINT('',(-0.014,0.018,0.0015748));
#576=CARTESIAN_POINT('',(0.,0.018,0.0015748));
#577=CARTESIAN_POINT('',(-0.014,0.0165,0.0015748));
#578=CARTESIAN_POINT('',(-0.014,0.0165,0.));
#579=CARTESIAN_POINT('',(-0.0155,0.0165,0.));
#580=CARTESIAN_POINT('',(-0.0155,0.0165,0.0015748));
#581=CARTESIAN_POINT('',(-0.0155,0.0165,0.0015748));
#582=CARTESIAN_POINT('',(-0.014,0.0165,0.0015748));
#583=CARTESIAN_POINT('',(-0.0155,0.00325,0.0015748));
#584=CARTESIAN_POINT('',(-0.0155,0.00325,0.));
#585=CARTESIAN_POINT('',(-0.0155,0.00325,0.0015748));
#586=CARTESIAN_POINT('',(3.46944695195361E-18,3.46944695195361E-18,0.0015748));
#587=CARTESIAN_POINT('',(3.46944695195361E-18,3.46944695195361E-18,0.));
#588=MECHANICAL_DESIGN_GEOMETRIC_PRESENTATION_REPRESENTATION('',(#341),
#589);
#589=(
GEOMETRIC_REPRESENTATION_CONTEXT(3)
GLOBAL_UNCERTAINTY_ASSIGNED_CONTEXT((#590))
GLOBAL_UNIT_ASSIGNED_CONTEXT((#593,#592,#591))
REPRESENTATION_CONTEXT('DSCH052-E062','TOP_LEVEL_ASSEMBLY_PART')
);
#590=UNCERTAINTY_MEASURE_WITH_UNIT(LENGTH_MEASURE(5.E-6),#593,
'DISTANCE_ACCURACY_VALUE','Maximum Tolerance applied to model');
#591=(
NAMED_UNIT(*)
SI_UNIT($,.STERADIAN.)
SOLID_ANGLE_UNIT()
);
#592=(
NAMED_UNIT(*)
PLANE_ANGLE_UNIT()
SI_UNIT($,.RADIAN.)
);
#593=(
LENGTH_UNIT()
NAMED_UNIT(*)
SI_UNIT($,.METRE.)
);
#594=PRODUCT_DEFINITION_SHAPE('','',#595);
#595=PRODUCT_DEFINITION('','',#597,#596);
#596=PRODUCT_DEFINITION_CONTEXT('',#603,'design');
#597=PRODUCT_DEFINITION_FORMATION_WITH_SPECIFIED_SOURCE('','',#599,
 .NOT_KNOWN.);
#598=PRODUCT_RELATED_PRODUCT_CATEGORY('','',(#599));
#599=PRODUCT('DSCH052-E062','DSCH052-E062','DSCH052-E062',(#601));
#600=PRODUCT_CATEGORY('','');
#601=PRODUCT_CONTEXT('',#603,'mechanical');
#602=APPLICATION_PROTOCOL_DEFINITION('international standard',
'ap242_managed_model_based_3d_engineering',2011,#603);
#603=APPLICATION_CONTEXT('managed model based 3d engineering');
ENDSEC;
END-ISO-10303-21;
