ISO-10303-21;
HEADER;
/* Generated by software containing ST-Developer
 * from STEP Tools, Inc. (www.steptools.com) 
 */
/* OPTION: using custom renumber hook */

FILE_DESCRIPTION(
/* description */ ('STEP AP242',
'CAx-IF Rec.Pracs.---Representation and Presentation of Product Manufa
cturing Information (PMI)---4.0---2014-10-13',
'CAx-IF Rec.Pracs.---3D Tessellated Geometry---0.4---2014-09-14','2;1'),

/* implementation_level */ '2;1');

FILE_NAME(
/* name */ '627a67256592a2203acb7585',
/* time_stamp */ '2022-05-10T13:22:45+00:00',
/* author */ (''),
/* organization */ (''),
/* preprocessor_version */ 'ST-DEVELOPER v18.101',
/* originating_system */ '  ',
/* authorisation */ '  ');

FILE_SCHEMA (('AP242_MANAGED_MODEL_BASED_3D_ENGINEERING_MIM_LF { 1 0 10303 442 1 1 4 }'));
ENDSEC;

DATA;
#10=SHAPE_REPRESENTATION_RELATIONSHIP('','',#197,#11);
#11=ADVANCED_BREP_SHAPE_REPRESENTATION('',(#195),#311);
#12=CIRCLE('',#203,0.008);
#13=CIRCLE('',#204,0.008);
#14=CYLINDRICAL_SURFACE('',#202,0.008);
#15=ORIENTED_EDGE('',*,*,#63,.T.);
#16=ORIENTED_EDGE('',*,*,#64,.F.);
#17=ORIENTED_EDGE('',*,*,#65,.F.);
#18=ORIENTED_EDGE('',*,*,#66,.T.);
#19=ORIENTED_EDGE('',*,*,#67,.T.);
#20=ORIENTED_EDGE('',*,*,#68,.F.);
#21=ORIENTED_EDGE('',*,*,#69,.F.);
#22=ORIENTED_EDGE('',*,*,#64,.T.);
#23=ORIENTED_EDGE('',*,*,#70,.F.);
#24=ORIENTED_EDGE('',*,*,#71,.F.);
#25=ORIENTED_EDGE('',*,*,#72,.T.);
#26=ORIENTED_EDGE('',*,*,#68,.T.);
#27=ORIENTED_EDGE('',*,*,#73,.F.);
#28=ORIENTED_EDGE('',*,*,#74,.F.);
#29=ORIENTED_EDGE('',*,*,#75,.T.);
#30=ORIENTED_EDGE('',*,*,#71,.T.);
#31=ORIENTED_EDGE('',*,*,#76,.T.);
#32=ORIENTED_EDGE('',*,*,#77,.F.);
#33=ORIENTED_EDGE('',*,*,#78,.F.);
#34=ORIENTED_EDGE('',*,*,#74,.T.);
#35=ORIENTED_EDGE('',*,*,#79,.T.);
#36=ORIENTED_EDGE('',*,*,#80,.F.);
#37=ORIENTED_EDGE('',*,*,#81,.F.);
#38=ORIENTED_EDGE('',*,*,#77,.T.);
#39=ORIENTED_EDGE('',*,*,#82,.F.);
#40=ORIENTED_EDGE('',*,*,#83,.F.);
#41=ORIENTED_EDGE('',*,*,#84,.T.);
#42=ORIENTED_EDGE('',*,*,#80,.T.);
#43=ORIENTED_EDGE('',*,*,#85,.F.);
#44=ORIENTED_EDGE('',*,*,#66,.F.);
#45=ORIENTED_EDGE('',*,*,#86,.T.);
#46=ORIENTED_EDGE('',*,*,#83,.T.);
#47=ORIENTED_EDGE('',*,*,#65,.T.);
#48=ORIENTED_EDGE('',*,*,#69,.T.);
#49=ORIENTED_EDGE('',*,*,#72,.F.);
#50=ORIENTED_EDGE('',*,*,#75,.F.);
#51=ORIENTED_EDGE('',*,*,#78,.T.);
#52=ORIENTED_EDGE('',*,*,#81,.T.);
#53=ORIENTED_EDGE('',*,*,#84,.F.);
#54=ORIENTED_EDGE('',*,*,#86,.F.);
#55=ORIENTED_EDGE('',*,*,#63,.F.);
#56=ORIENTED_EDGE('',*,*,#85,.T.);
#57=ORIENTED_EDGE('',*,*,#82,.T.);
#58=ORIENTED_EDGE('',*,*,#79,.F.);
#59=ORIENTED_EDGE('',*,*,#76,.F.);
#60=ORIENTED_EDGE('',*,*,#73,.T.);
#61=ORIENTED_EDGE('',*,*,#70,.T.);
#62=ORIENTED_EDGE('',*,*,#67,.F.);
#63=EDGE_CURVE('',#87,#88,#103,.T.);
#64=EDGE_CURVE('',#89,#88,#104,.T.);
#65=EDGE_CURVE('',#90,#89,#105,.T.);
#66=EDGE_CURVE('',#90,#87,#106,.T.);
#67=EDGE_CURVE('',#88,#91,#107,.T.);
#68=EDGE_CURVE('',#92,#91,#108,.T.);
#69=EDGE_CURVE('',#89,#92,#109,.T.);
#70=EDGE_CURVE('',#93,#91,#110,.T.);
#71=EDGE_CURVE('',#94,#93,#111,.T.);
#72=EDGE_CURVE('',#94,#92,#112,.T.);
#73=EDGE_CURVE('',#95,#93,#12,.T.);
#74=EDGE_CURVE('',#96,#95,#113,.T.);
#75=EDGE_CURVE('',#96,#94,#13,.T.);
#76=EDGE_CURVE('',#95,#97,#114,.T.);
#77=EDGE_CURVE('',#98,#97,#115,.T.);
#78=EDGE_CURVE('',#96,#98,#116,.T.);
#79=EDGE_CURVE('',#97,#99,#117,.T.);
#80=EDGE_CURVE('',#100,#99,#118,.T.);
#81=EDGE_CURVE('',#98,#100,#119,.T.);
#82=EDGE_CURVE('',#101,#99,#120,.T.);
#83=EDGE_CURVE('',#102,#101,#121,.T.);
#84=EDGE_CURVE('',#102,#100,#122,.T.);
#85=EDGE_CURVE('',#87,#101,#123,.T.);
#86=EDGE_CURVE('',#90,#102,#124,.T.);
#87=VERTEX_POINT('',#262);
#88=VERTEX_POINT('',#263);
#89=VERTEX_POINT('',#265);
#90=VERTEX_POINT('',#267);
#91=VERTEX_POINT('',#271);
#92=VERTEX_POINT('',#273);
#93=VERTEX_POINT('',#277);
#94=VERTEX_POINT('',#279);
#95=VERTEX_POINT('',#283);
#96=VERTEX_POINT('',#285);
#97=VERTEX_POINT('',#289);
#98=VERTEX_POINT('',#291);
#99=VERTEX_POINT('',#295);
#100=VERTEX_POINT('',#297);
#101=VERTEX_POINT('',#301);
#102=VERTEX_POINT('',#303);
#103=LINE('',#261,#125);
#104=LINE('',#264,#126);
#105=LINE('',#266,#127);
#106=LINE('',#268,#128);
#107=LINE('',#270,#129);
#108=LINE('',#272,#130);
#109=LINE('',#274,#131);
#110=LINE('',#276,#132);
#111=LINE('',#278,#133);
#112=LINE('',#280,#134);
#113=LINE('',#284,#135);
#114=LINE('',#288,#136);
#115=LINE('',#290,#137);
#116=LINE('',#292,#138);
#117=LINE('',#294,#139);
#118=LINE('',#296,#140);
#119=LINE('',#298,#141);
#120=LINE('',#300,#142);
#121=LINE('',#302,#143);
#122=LINE('',#304,#144);
#123=LINE('',#306,#145);
#124=LINE('',#307,#146);
#125=VECTOR('',#215,1.);
#126=VECTOR('',#216,1.);
#127=VECTOR('',#217,1.);
#128=VECTOR('',#218,1.);
#129=VECTOR('',#221,1.);
#130=VECTOR('',#222,1.);
#131=VECTOR('',#223,1.);
#132=VECTOR('',#226,1.);
#133=VECTOR('',#227,1.);
#134=VECTOR('',#228,1.);
#135=VECTOR('',#233,1.);
#136=VECTOR('',#238,1.);
#137=VECTOR('',#239,1.);
#138=VECTOR('',#240,1.);
#139=VECTOR('',#243,1.);
#140=VECTOR('',#244,1.);
#141=VECTOR('',#245,1.);
#142=VECTOR('',#248,1.);
#143=VECTOR('',#249,1.);
#144=VECTOR('',#250,1.);
#145=VECTOR('',#253,1.);
#146=VECTOR('',#254,1.);
#147=EDGE_LOOP('',(#15,#16,#17,#18));
#148=EDGE_LOOP('',(#19,#20,#21,#22));
#149=EDGE_LOOP('',(#23,#24,#25,#26));
#150=EDGE_LOOP('',(#27,#28,#29,#30));
#151=EDGE_LOOP('',(#31,#32,#33,#34));
#152=EDGE_LOOP('',(#35,#36,#37,#38));
#153=EDGE_LOOP('',(#39,#40,#41,#42));
#154=EDGE_LOOP('',(#43,#44,#45,#46));
#155=EDGE_LOOP('',(#47,#48,#49,#50,#51,#52,#53,#54));
#156=EDGE_LOOP('',(#55,#56,#57,#58,#59,#60,#61,#62));
#157=FACE_BOUND('',#147,.T.);
#158=FACE_BOUND('',#148,.T.);
#159=FACE_BOUND('',#149,.T.);
#160=FACE_BOUND('',#150,.T.);
#161=FACE_BOUND('',#151,.T.);
#162=FACE_BOUND('',#152,.T.);
#163=FACE_BOUND('',#153,.T.);
#164=FACE_BOUND('',#154,.T.);
#165=FACE_BOUND('',#155,.T.);
#166=FACE_BOUND('',#156,.T.);
#167=PLANE('',#199);
#168=PLANE('',#200);
#169=PLANE('',#201);
#170=PLANE('',#205);
#171=PLANE('',#206);
#172=PLANE('',#207);
#173=PLANE('',#208);
#174=PLANE('',#209);
#175=PLANE('',#210);
#176=ADVANCED_FACE('',(#157),#167,.F.);
#177=ADVANCED_FACE('',(#158),#168,.F.);
#178=ADVANCED_FACE('',(#159),#169,.T.);
#179=ADVANCED_FACE('',(#160),#14,.F.);
#180=ADVANCED_FACE('',(#161),#170,.F.);
#181=ADVANCED_FACE('',(#162),#171,.F.);
#182=ADVANCED_FACE('',(#163),#172,.T.);
#183=ADVANCED_FACE('',(#164),#173,.T.);
#184=ADVANCED_FACE('',(#165),#174,.T.);
#185=ADVANCED_FACE('',(#166),#175,.F.);
#186=CLOSED_SHELL('',(#176,#177,#178,#179,#180,#181,#182,#183,#184,#185));
#187=STYLED_ITEM('',(#188),#195);
#188=PRESENTATION_STYLE_ASSIGNMENT((#189));
#189=SURFACE_STYLE_USAGE(.BOTH.,#190);
#190=SURFACE_SIDE_STYLE('',(#191));
#191=SURFACE_STYLE_FILL_AREA(#192);
#192=FILL_AREA_STYLE('',(#193));
#193=FILL_AREA_STYLE_COLOUR('',#194);
#194=COLOUR_RGB('',0.917647058823529,0.917647058823529,0.917647058823529);
#195=MANIFOLD_SOLID_BREP('DSCH055-E015',#186);
#196=SHAPE_DEFINITION_REPRESENTATION(#316,#197);
#197=SHAPE_REPRESENTATION('DSCH055-E015',(#198),#311);
#198=AXIS2_PLACEMENT_3D('',#259,#211,#212);
#199=AXIS2_PLACEMENT_3D('',#260,#213,#214);
#200=AXIS2_PLACEMENT_3D('',#269,#219,#220);
#201=AXIS2_PLACEMENT_3D('',#275,#224,#225);
#202=AXIS2_PLACEMENT_3D('',#281,#229,#230);
#203=AXIS2_PLACEMENT_3D('',#282,#231,#232);
#204=AXIS2_PLACEMENT_3D('',#286,#234,#235);
#205=AXIS2_PLACEMENT_3D('',#287,#236,#237);
#206=AXIS2_PLACEMENT_3D('',#293,#241,#242);
#207=AXIS2_PLACEMENT_3D('',#299,#246,#247);
#208=AXIS2_PLACEMENT_3D('',#305,#251,#252);
#209=AXIS2_PLACEMENT_3D('',#308,#255,#256);
#210=AXIS2_PLACEMENT_3D('',#309,#257,#258);
#211=DIRECTION('',(0.,0.,1.));
#212=DIRECTION('',(1.,0.,0.));
#213=DIRECTION('',(-1.,0.,0.));
#214=DIRECTION('',(0.,0.,1.));
#215=DIRECTION('',(0.,1.,0.));
#216=DIRECTION('',(0.,0.,-1.));
#217=DIRECTION('',(0.,1.,0.));
#218=DIRECTION('',(0.,0.,-1.));
#219=DIRECTION('',(1.15648231731787E-16,-1.,0.));
#220=DIRECTION('',(1.,1.15648231731787E-16,0.));
#221=DIRECTION('',(-1.,-1.15648231731787E-16,0.));
#222=DIRECTION('',(0.,0.,-1.));
#223=DIRECTION('',(-1.,-1.15648231731787E-16,0.));
#224=DIRECTION('',(-1.,0.,0.));
#225=DIRECTION('',(0.,0.,1.));
#226=DIRECTION('',(0.,1.,0.));
#227=DIRECTION('',(0.,0.,-1.));
#228=DIRECTION('',(0.,1.,0.));
#229=DIRECTION('',(0.,0.,-1.));
#230=DIRECTION('',(-1.,0.,0.));
#231=DIRECTION('',(0.,0.,1.));
#232=DIRECTION('',(1.,0.,0.));
#233=DIRECTION('',(0.,0.,-1.));
#234=DIRECTION('',(0.,0.,1.));
#235=DIRECTION('',(1.,0.,0.));
#236=DIRECTION('',(-1.,0.,0.));
#237=DIRECTION('',(0.,0.,1.));
#238=DIRECTION('',(0.,1.,0.));
#239=DIRECTION('',(0.,0.,-1.));
#240=DIRECTION('',(0.,1.,0.));
#241=DIRECTION('',(1.15648231731787E-16,-1.,0.));
#242=DIRECTION('',(1.,1.15648231731787E-16,0.));
#243=DIRECTION('',(-1.,-1.15648231731787E-16,0.));
#244=DIRECTION('',(0.,0.,-1.));
#245=DIRECTION('',(-1.,-1.15648231731787E-16,0.));
#246=DIRECTION('',(-1.,0.,0.));
#247=DIRECTION('',(0.,0.,1.));
#248=DIRECTION('',(0.,1.,0.));
#249=DIRECTION('',(0.,0.,-1.));
#250=DIRECTION('',(0.,1.,0.));
#251=DIRECTION('',(1.3695185336659E-16,-1.,0.));
#252=DIRECTION('',(1.,1.3695185336659E-16,0.));
#253=DIRECTION('',(-1.,-1.3695185336659E-16,0.));
#254=DIRECTION('',(-1.,-1.3695185336659E-16,0.));
#255=DIRECTION('',(0.,0.,1.));
#256=DIRECTION('',(1.,0.,0.));
#257=DIRECTION('',(0.,0.,1.));
#258=DIRECTION('',(1.,0.,0.));
#259=CARTESIAN_POINT('',(0.,0.,0.));
#260=CARTESIAN_POINT('',(0.038,3.46944695195361E-18,0.000381));
#261=CARTESIAN_POINT('',(0.038,3.46944695195361E-18,0.));
#262=CARTESIAN_POINT('',(0.038,-0.025,0.));
#263=CARTESIAN_POINT('',(0.038,0.025,0.));
#264=CARTESIAN_POINT('',(0.038,0.025,0.000381));
#265=CARTESIAN_POINT('',(0.038,0.025,0.000381));
#266=CARTESIAN_POINT('',(0.038,3.46944695195361E-18,0.000381));
#267=CARTESIAN_POINT('',(0.038,-0.025,0.000381));
#268=CARTESIAN_POINT('',(0.038,-0.025,0.000381));
#269=CARTESIAN_POINT('',(0.023,0.025,0.000381));
#270=CARTESIAN_POINT('',(0.023,0.025,0.));
#271=CARTESIAN_POINT('',(0.008,0.025,0.));
#272=CARTESIAN_POINT('',(0.008,0.025,0.000381));
#273=CARTESIAN_POINT('',(0.008,0.025,0.000381));
#274=CARTESIAN_POINT('',(0.023,0.025,0.000381));
#275=CARTESIAN_POINT('',(0.008,0.0125,0.000381));
#276=CARTESIAN_POINT('',(0.008,0.0125,0.));
#277=CARTESIAN_POINT('',(0.008,-1.95943487863577E-18,0.));
#278=CARTESIAN_POINT('',(0.008,-1.95943487863577E-18,0.000381));
#279=CARTESIAN_POINT('',(0.008,-1.95943487863577E-18,0.000381));
#280=CARTESIAN_POINT('',(0.008,0.0125,0.000381));
#281=CARTESIAN_POINT('',(0.,-4.89858719658941E-19,0.000381));
#282=CARTESIAN_POINT('',(0.,-4.89858719658941E-19,0.));
#283=CARTESIAN_POINT('',(-0.008,0.,0.));
#284=CARTESIAN_POINT('',(-0.008,0.,0.000381));
#285=CARTESIAN_POINT('',(-0.008,0.,0.000381));
#286=CARTESIAN_POINT('',(0.,-4.89858719658941E-19,0.000381));
#287=CARTESIAN_POINT('',(-0.008,0.0125,0.000381));
#288=CARTESIAN_POINT('',(-0.008,0.0125,0.));
#289=CARTESIAN_POINT('',(-0.008,0.025,0.));
#290=CARTESIAN_POINT('',(-0.008,0.025,0.000381));
#291=CARTESIAN_POINT('',(-0.008,0.025,0.000381));
#292=CARTESIAN_POINT('',(-0.008,0.0125,0.000381));
#293=CARTESIAN_POINT('',(-0.023,0.025,0.000381));
#294=CARTESIAN_POINT('',(-0.023,0.025,0.));
#295=CARTESIAN_POINT('',(-0.038,0.025,0.));
#296=CARTESIAN_POINT('',(-0.038,0.025,0.000381));
#297=CARTESIAN_POINT('',(-0.038,0.025,0.000381));
#298=CARTESIAN_POINT('',(-0.023,0.025,0.000381));
#299=CARTESIAN_POINT('',(-0.038,-6.93889390390723E-18,0.000381));
#300=CARTESIAN_POINT('',(-0.038,-6.93889390390723E-18,0.));
#301=CARTESIAN_POINT('',(-0.038,-0.025,0.));
#302=CARTESIAN_POINT('',(-0.038,-0.025,0.000381));
#303=CARTESIAN_POINT('',(-0.038,-0.025,0.000381));
#304=CARTESIAN_POINT('',(-0.038,-6.93889390390723E-18,0.000381));
#305=CARTESIAN_POINT('',(0.,-0.025,0.000381));
#306=CARTESIAN_POINT('',(0.,-0.025,0.));
#307=CARTESIAN_POINT('',(0.,-0.025,0.000381));
#308=CARTESIAN_POINT('',(0.,0.,0.000381));
#309=CARTESIAN_POINT('',(0.,0.,0.));
#310=MECHANICAL_DESIGN_GEOMETRIC_PRESENTATION_REPRESENTATION('',(#187),
#311);
#311=(
GEOMETRIC_REPRESENTATION_CONTEXT(3)
GLOBAL_UNCERTAINTY_ASSIGNED_CONTEXT((#312))
GLOBAL_UNIT_ASSIGNED_CONTEXT((#315,#314,#313))
REPRESENTATION_CONTEXT('DSCH055-E015','TOP_LEVEL_ASSEMBLY_PART')
);
#312=UNCERTAINTY_MEASURE_WITH_UNIT(LENGTH_MEASURE(5.E-6),#315,
'DISTANCE_ACCURACY_VALUE','Maximum Tolerance applied to model');
#313=(
NAMED_UNIT(*)
SI_UNIT($,.STERADIAN.)
SOLID_ANGLE_UNIT()
);
#314=(
NAMED_UNIT(*)
PLANE_ANGLE_UNIT()
SI_UNIT($,.RADIAN.)
);
#315=(
LENGTH_UNIT()
NAMED_UNIT(*)
SI_UNIT($,.METRE.)
);
#316=PRODUCT_DEFINITION_SHAPE('','',#317);
#317=PRODUCT_DEFINITION('','',#319,#318);
#318=PRODUCT_DEFINITION_CONTEXT('',#325,'design');
#319=PRODUCT_DEFINITION_FORMATION_WITH_SPECIFIED_SOURCE('','',#321,
 .NOT_KNOWN.);
#320=PRODUCT_RELATED_PRODUCT_CATEGORY('','',(#321));
#321=PRODUCT('DSCH055-E015','DSCH055-E015','DSCH055-E015',(#323));
#322=PRODUCT_CATEGORY('','');
#323=PRODUCT_CONTEXT('',#325,'mechanical');
#324=APPLICATION_PROTOCOL_DEFINITION('international standard',
'ap242_managed_model_based_3d_engineering',2011,#325);
#325=APPLICATION_CONTEXT('managed model based 3d engineering');
ENDSEC;
END-ISO-10303-21;
