ISO-10303-21;
HEADER;
/* Generated by software containing ST-Developer
 * from STEP Tools, Inc. (www.steptools.com) 
 */
/* OPTION: using custom renumber hook */

FILE_DESCRIPTION(
/* description */ ('STEP AP242',
'CAx-IF Rec.Pracs.---Representation and Presentation of Product Manufa
cturing Information (PMI)---4.0---2014-10-13',
'CAx-IF Rec.Pracs.---3D Tessellated Geometry---0.4---2014-09-14','2;1'),

/* implementation_level */ '2;1');

FILE_NAME(
/* name */ '627a69746592a2203acb84f1',
/* time_stamp */ '2022-05-10T13:32:37+00:00',
/* author */ (''),
/* organization */ (''),
/* preprocessor_version */ 'ST-DEVELOPER v18.101',
/* originating_system */ '  ',
/* authorisation */ '  ');

FILE_SCHEMA (('AP242_MANAGED_MODEL_BASED_3D_ENGINEERING_MIM_LF { 1 0 10303 442 1 1 4 }'));
ENDSEC;

DATA;
#10=SHAPE_REPRESENTATION_RELATIONSHIP('','',#319,#11);
#11=ADVANCED_BREP_SHAPE_REPRESENTATION('',(#317),#513);
#12=PLANE('',#324);
#13=PLANE('',#325);
#14=PLANE('',#326);
#15=PLANE('',#327);
#16=PLANE('',#328);
#17=PLANE('',#332);
#18=PLANE('',#336);
#19=PLANE('',#337);
#20=PLANE('',#338);
#21=PLANE('',#339);
#22=PLANE('',#340);
#23=PLANE('',#341);
#24=PLANE('',#342);
#25=LINE('',#430,#61);
#26=LINE('',#434,#62);
#27=LINE('',#436,#63);
#28=LINE('',#438,#64);
#29=LINE('',#440,#65);
#30=LINE('',#442,#66);
#31=LINE('',#444,#67);
#32=LINE('',#446,#68);
#33=LINE('',#448,#69);
#34=LINE('',#450,#70);
#35=LINE('',#452,#71);
#36=LINE('',#454,#72);
#37=LINE('',#456,#73);
#38=LINE('',#458,#74);
#39=LINE('',#460,#75);
#40=LINE('',#462,#76);
#41=LINE('',#464,#77);
#42=LINE('',#468,#78);
#43=LINE('',#472,#79);
#44=LINE('',#474,#80);
#45=LINE('',#476,#81);
#46=LINE('',#480,#82);
#47=LINE('',#484,#83);
#48=LINE('',#486,#84);
#49=LINE('',#488,#85);
#50=LINE('',#490,#86);
#51=LINE('',#492,#87);
#52=LINE('',#494,#88);
#53=LINE('',#496,#89);
#54=LINE('',#498,#90);
#55=LINE('',#500,#91);
#56=LINE('',#502,#92);
#57=LINE('',#504,#93);
#58=LINE('',#506,#94);
#59=LINE('',#508,#95);
#60=LINE('',#509,#96);
#61=VECTOR('',#349,1.);
#62=VECTOR('',#352,1.);
#63=VECTOR('',#355,1.);
#64=VECTOR('',#356,1.);
#65=VECTOR('',#357,1.);
#66=VECTOR('',#360,1.);
#67=VECTOR('',#361,1.);
#68=VECTOR('',#362,1.);
#69=VECTOR('',#365,1.);
#70=VECTOR('',#366,1.);
#71=VECTOR('',#367,1.);
#72=VECTOR('',#370,1.);
#73=VECTOR('',#371,1.);
#74=VECTOR('',#372,1.);
#75=VECTOR('',#375,1.);
#76=VECTOR('',#376,1.);
#77=VECTOR('',#377,1.);
#78=VECTOR('',#382,1.);
#79=VECTOR('',#387,1.);
#80=VECTOR('',#388,1.);
#81=VECTOR('',#389,1.);
#82=VECTOR('',#394,1.);
#83=VECTOR('',#399,1.);
#84=VECTOR('',#400,1.);
#85=VECTOR('',#401,1.);
#86=VECTOR('',#404,1.);
#87=VECTOR('',#405,1.);
#88=VECTOR('',#406,1.);
#89=VECTOR('',#409,1.);
#90=VECTOR('',#410,1.);
#91=VECTOR('',#411,1.);
#92=VECTOR('',#414,1.);
#93=VECTOR('',#415,1.);
#94=VECTOR('',#416,1.);
#95=VECTOR('',#419,1.);
#96=VECTOR('',#420,1.);
#97=ORIENTED_EDGE('',*,*,#181,.F.);
#98=ORIENTED_EDGE('',*,*,#182,.F.);
#99=ORIENTED_EDGE('',*,*,#183,.T.);
#100=ORIENTED_EDGE('',*,*,#184,.T.);
#101=ORIENTED_EDGE('',*,*,#185,.T.);
#102=ORIENTED_EDGE('',*,*,#186,.F.);
#103=ORIENTED_EDGE('',*,*,#187,.F.);
#104=ORIENTED_EDGE('',*,*,#182,.T.);
#105=ORIENTED_EDGE('',*,*,#188,.T.);
#106=ORIENTED_EDGE('',*,*,#189,.F.);
#107=ORIENTED_EDGE('',*,*,#190,.F.);
#108=ORIENTED_EDGE('',*,*,#186,.T.);
#109=ORIENTED_EDGE('',*,*,#191,.T.);
#110=ORIENTED_EDGE('',*,*,#192,.F.);
#111=ORIENTED_EDGE('',*,*,#193,.F.);
#112=ORIENTED_EDGE('',*,*,#189,.T.);
#113=ORIENTED_EDGE('',*,*,#194,.F.);
#114=ORIENTED_EDGE('',*,*,#195,.F.);
#115=ORIENTED_EDGE('',*,*,#196,.T.);
#116=ORIENTED_EDGE('',*,*,#192,.T.);
#117=ORIENTED_EDGE('',*,*,#197,.F.);
#118=ORIENTED_EDGE('',*,*,#198,.F.);
#119=ORIENTED_EDGE('',*,*,#199,.T.);
#120=ORIENTED_EDGE('',*,*,#195,.T.);
#121=ORIENTED_EDGE('',*,*,#200,.T.);
#122=ORIENTED_EDGE('',*,*,#201,.F.);
#123=ORIENTED_EDGE('',*,*,#202,.F.);
#124=ORIENTED_EDGE('',*,*,#198,.T.);
#125=ORIENTED_EDGE('',*,*,#203,.F.);
#126=ORIENTED_EDGE('',*,*,#204,.F.);
#127=ORIENTED_EDGE('',*,*,#205,.T.);
#128=ORIENTED_EDGE('',*,*,#201,.T.);
#129=ORIENTED_EDGE('',*,*,#206,.T.);
#130=ORIENTED_EDGE('',*,*,#207,.F.);
#131=ORIENTED_EDGE('',*,*,#208,.F.);
#132=ORIENTED_EDGE('',*,*,#204,.T.);
#133=ORIENTED_EDGE('',*,*,#209,.T.);
#134=ORIENTED_EDGE('',*,*,#210,.F.);
#135=ORIENTED_EDGE('',*,*,#211,.F.);
#136=ORIENTED_EDGE('',*,*,#207,.T.);
#137=ORIENTED_EDGE('',*,*,#212,.T.);
#138=ORIENTED_EDGE('',*,*,#213,.F.);
#139=ORIENTED_EDGE('',*,*,#214,.F.);
#140=ORIENTED_EDGE('',*,*,#210,.T.);
#141=ORIENTED_EDGE('',*,*,#215,.T.);
#142=ORIENTED_EDGE('',*,*,#216,.F.);
#143=ORIENTED_EDGE('',*,*,#217,.F.);
#144=ORIENTED_EDGE('',*,*,#213,.T.);
#145=ORIENTED_EDGE('',*,*,#218,.F.);
#146=ORIENTED_EDGE('',*,*,#219,.F.);
#147=ORIENTED_EDGE('',*,*,#220,.T.);
#148=ORIENTED_EDGE('',*,*,#216,.T.);
#149=ORIENTED_EDGE('',*,*,#221,.F.);
#150=ORIENTED_EDGE('',*,*,#184,.F.);
#151=ORIENTED_EDGE('',*,*,#222,.T.);
#152=ORIENTED_EDGE('',*,*,#219,.T.);
#153=ORIENTED_EDGE('',*,*,#183,.F.);
#154=ORIENTED_EDGE('',*,*,#187,.T.);
#155=ORIENTED_EDGE('',*,*,#190,.T.);
#156=ORIENTED_EDGE('',*,*,#193,.T.);
#157=ORIENTED_EDGE('',*,*,#196,.F.);
#158=ORIENTED_EDGE('',*,*,#199,.F.);
#159=ORIENTED_EDGE('',*,*,#202,.T.);
#160=ORIENTED_EDGE('',*,*,#205,.F.);
#161=ORIENTED_EDGE('',*,*,#208,.T.);
#162=ORIENTED_EDGE('',*,*,#211,.T.);
#163=ORIENTED_EDGE('',*,*,#214,.T.);
#164=ORIENTED_EDGE('',*,*,#217,.T.);
#165=ORIENTED_EDGE('',*,*,#220,.F.);
#166=ORIENTED_EDGE('',*,*,#222,.F.);
#167=ORIENTED_EDGE('',*,*,#181,.T.);
#168=ORIENTED_EDGE('',*,*,#221,.T.);
#169=ORIENTED_EDGE('',*,*,#218,.T.);
#170=ORIENTED_EDGE('',*,*,#215,.F.);
#171=ORIENTED_EDGE('',*,*,#212,.F.);
#172=ORIENTED_EDGE('',*,*,#209,.F.);
#173=ORIENTED_EDGE('',*,*,#206,.F.);
#174=ORIENTED_EDGE('',*,*,#203,.T.);
#175=ORIENTED_EDGE('',*,*,#200,.F.);
#176=ORIENTED_EDGE('',*,*,#197,.T.);
#177=ORIENTED_EDGE('',*,*,#194,.T.);
#178=ORIENTED_EDGE('',*,*,#191,.F.);
#179=ORIENTED_EDGE('',*,*,#188,.F.);
#180=ORIENTED_EDGE('',*,*,#185,.F.);
#181=EDGE_CURVE('',#223,#224,#251,.T.);
#182=EDGE_CURVE('',#225,#223,#25,.T.);
#183=EDGE_CURVE('',#225,#226,#252,.T.);
#184=EDGE_CURVE('',#226,#224,#26,.T.);
#185=EDGE_CURVE('',#223,#227,#27,.T.);
#186=EDGE_CURVE('',#228,#227,#28,.T.);
#187=EDGE_CURVE('',#225,#228,#29,.T.);
#188=EDGE_CURVE('',#227,#229,#30,.T.);
#189=EDGE_CURVE('',#230,#229,#31,.T.);
#190=EDGE_CURVE('',#228,#230,#32,.T.);
#191=EDGE_CURVE('',#229,#231,#33,.T.);
#192=EDGE_CURVE('',#232,#231,#34,.T.);
#193=EDGE_CURVE('',#230,#232,#35,.T.);
#194=EDGE_CURVE('',#233,#231,#36,.T.);
#195=EDGE_CURVE('',#234,#233,#37,.T.);
#196=EDGE_CURVE('',#234,#232,#38,.T.);
#197=EDGE_CURVE('',#235,#233,#39,.T.);
#198=EDGE_CURVE('',#236,#235,#40,.T.);
#199=EDGE_CURVE('',#236,#234,#41,.T.);
#200=EDGE_CURVE('',#235,#237,#253,.T.);
#201=EDGE_CURVE('',#238,#237,#42,.T.);
#202=EDGE_CURVE('',#236,#238,#254,.T.);
#203=EDGE_CURVE('',#239,#237,#43,.T.);
#204=EDGE_CURVE('',#240,#239,#44,.T.);
#205=EDGE_CURVE('',#240,#238,#45,.T.);
#206=EDGE_CURVE('',#239,#241,#255,.T.);
#207=EDGE_CURVE('',#242,#241,#46,.T.);
#208=EDGE_CURVE('',#240,#242,#256,.T.);
#209=EDGE_CURVE('',#241,#243,#47,.T.);
#210=EDGE_CURVE('',#244,#243,#48,.T.);
#211=EDGE_CURVE('',#242,#244,#49,.T.);
#212=EDGE_CURVE('',#243,#245,#50,.T.);
#213=EDGE_CURVE('',#246,#245,#51,.T.);
#214=EDGE_CURVE('',#244,#246,#52,.T.);
#215=EDGE_CURVE('',#245,#247,#53,.T.);
#216=EDGE_CURVE('',#248,#247,#54,.T.);
#217=EDGE_CURVE('',#246,#248,#55,.T.);
#218=EDGE_CURVE('',#249,#247,#56,.T.);
#219=EDGE_CURVE('',#250,#249,#57,.T.);
#220=EDGE_CURVE('',#250,#248,#58,.T.);
#221=EDGE_CURVE('',#224,#249,#59,.T.);
#222=EDGE_CURVE('',#226,#250,#60,.T.);
#223=VERTEX_POINT('',#428);
#224=VERTEX_POINT('',#429);
#225=VERTEX_POINT('',#431);
#226=VERTEX_POINT('',#433);
#227=VERTEX_POINT('',#437);
#228=VERTEX_POINT('',#439);
#229=VERTEX_POINT('',#443);
#230=VERTEX_POINT('',#445);
#231=VERTEX_POINT('',#449);
#232=VERTEX_POINT('',#451);
#233=VERTEX_POINT('',#455);
#234=VERTEX_POINT('',#457);
#235=VERTEX_POINT('',#461);
#236=VERTEX_POINT('',#463);
#237=VERTEX_POINT('',#467);
#238=VERTEX_POINT('',#469);
#239=VERTEX_POINT('',#473);
#240=VERTEX_POINT('',#475);
#241=VERTEX_POINT('',#479);
#242=VERTEX_POINT('',#481);
#243=VERTEX_POINT('',#485);
#244=VERTEX_POINT('',#487);
#245=VERTEX_POINT('',#491);
#246=VERTEX_POINT('',#493);
#247=VERTEX_POINT('',#497);
#248=VERTEX_POINT('',#499);
#249=VERTEX_POINT('',#503);
#250=VERTEX_POINT('',#505);
#251=CIRCLE('',#322,0.004318);
#252=CIRCLE('',#323,0.004318);
#253=CIRCLE('',#330,0.001524);
#254=CIRCLE('',#331,0.001524);
#255=CIRCLE('',#334,0.001524);
#256=CIRCLE('',#335,0.001524);
#257=EDGE_LOOP('',(#97,#98,#99,#100));
#258=EDGE_LOOP('',(#101,#102,#103,#104));
#259=EDGE_LOOP('',(#105,#106,#107,#108));
#260=EDGE_LOOP('',(#109,#110,#111,#112));
#261=EDGE_LOOP('',(#113,#114,#115,#116));
#262=EDGE_LOOP('',(#117,#118,#119,#120));
#263=EDGE_LOOP('',(#121,#122,#123,#124));
#264=EDGE_LOOP('',(#125,#126,#127,#128));
#265=EDGE_LOOP('',(#129,#130,#131,#132));
#266=EDGE_LOOP('',(#133,#134,#135,#136));
#267=EDGE_LOOP('',(#137,#138,#139,#140));
#268=EDGE_LOOP('',(#141,#142,#143,#144));
#269=EDGE_LOOP('',(#145,#146,#147,#148));
#270=EDGE_LOOP('',(#149,#150,#151,#152));
#271=EDGE_LOOP('',(#153,#154,#155,#156,#157,#158,#159,#160,#161,#162,#163,
#164,#165,#166));
#272=EDGE_LOOP('',(#167,#168,#169,#170,#171,#172,#173,#174,#175,#176,#177,
#178,#179,#180));
#273=FACE_BOUND('',#257,.T.);
#274=FACE_BOUND('',#258,.T.);
#275=FACE_BOUND('',#259,.T.);
#276=FACE_BOUND('',#260,.T.);
#277=FACE_BOUND('',#261,.T.);
#278=FACE_BOUND('',#262,.T.);
#279=FACE_BOUND('',#263,.T.);
#280=FACE_BOUND('',#264,.T.);
#281=FACE_BOUND('',#265,.T.);
#282=FACE_BOUND('',#266,.T.);
#283=FACE_BOUND('',#267,.T.);
#284=FACE_BOUND('',#268,.T.);
#285=FACE_BOUND('',#269,.T.);
#286=FACE_BOUND('',#270,.T.);
#287=FACE_BOUND('',#271,.T.);
#288=FACE_BOUND('',#272,.T.);
#289=CYLINDRICAL_SURFACE('',#321,0.004318);
#290=CYLINDRICAL_SURFACE('',#329,0.001524);
#291=CYLINDRICAL_SURFACE('',#333,0.001524);
#292=ADVANCED_FACE('',(#273),#289,.F.);
#293=ADVANCED_FACE('',(#274),#12,.F.);
#294=ADVANCED_FACE('',(#275),#13,.F.);
#295=ADVANCED_FACE('',(#276),#14,.F.);
#296=ADVANCED_FACE('',(#277),#15,.T.);
#297=ADVANCED_FACE('',(#278),#16,.T.);
#298=ADVANCED_FACE('',(#279),#290,.T.);
#299=ADVANCED_FACE('',(#280),#17,.T.);
#300=ADVANCED_FACE('',(#281),#291,.T.);
#301=ADVANCED_FACE('',(#282),#18,.F.);
#302=ADVANCED_FACE('',(#283),#19,.F.);
#303=ADVANCED_FACE('',(#284),#20,.F.);
#304=ADVANCED_FACE('',(#285),#21,.T.);
#305=ADVANCED_FACE('',(#286),#22,.T.);
#306=ADVANCED_FACE('',(#287),#23,.T.);
#307=ADVANCED_FACE('',(#288),#24,.F.);
#308=CLOSED_SHELL('',(#292,#293,#294,#295,#296,#297,#298,#299,#300,#301,
#302,#303,#304,#305,#306,#307));
#309=STYLED_ITEM('',(#310),#317);
#310=PRESENTATION_STYLE_ASSIGNMENT((#311));
#311=SURFACE_STYLE_USAGE(.BOTH.,#312);
#312=SURFACE_SIDE_STYLE('',(#313));
#313=SURFACE_STYLE_FILL_AREA(#314);
#314=FILL_AREA_STYLE('',(#315));
#315=FILL_AREA_STYLE_COLOUR('',#316);
#316=COLOUR_RGB('',0.917647058823529,0.917647058823529,0.917647058823529);
#317=MANIFOLD_SOLID_BREP('DSCH057-M025',#308);
#318=SHAPE_DEFINITION_REPRESENTATION(#518,#319);
#319=SHAPE_REPRESENTATION('DSCH057-M025',(#320),#513);
#320=AXIS2_PLACEMENT_3D('',#425,#343,#344);
#321=AXIS2_PLACEMENT_3D('',#426,#345,#346);
#322=AXIS2_PLACEMENT_3D('',#427,#347,#348);
#323=AXIS2_PLACEMENT_3D('',#432,#350,#351);
#324=AXIS2_PLACEMENT_3D('',#435,#353,#354);
#325=AXIS2_PLACEMENT_3D('',#441,#358,#359);
#326=AXIS2_PLACEMENT_3D('',#447,#363,#364);
#327=AXIS2_PLACEMENT_3D('',#453,#368,#369);
#328=AXIS2_PLACEMENT_3D('',#459,#373,#374);
#329=AXIS2_PLACEMENT_3D('',#465,#378,#379);
#330=AXIS2_PLACEMENT_3D('',#466,#380,#381);
#331=AXIS2_PLACEMENT_3D('',#470,#383,#384);
#332=AXIS2_PLACEMENT_3D('',#471,#385,#386);
#333=AXIS2_PLACEMENT_3D('',#477,#390,#391);
#334=AXIS2_PLACEMENT_3D('',#478,#392,#393);
#335=AXIS2_PLACEMENT_3D('',#482,#395,#396);
#336=AXIS2_PLACEMENT_3D('',#483,#397,#398);
#337=AXIS2_PLACEMENT_3D('',#489,#402,#403);
#338=AXIS2_PLACEMENT_3D('',#495,#407,#408);
#339=AXIS2_PLACEMENT_3D('',#501,#412,#413);
#340=AXIS2_PLACEMENT_3D('',#507,#417,#418);
#341=AXIS2_PLACEMENT_3D('',#510,#421,#422);
#342=AXIS2_PLACEMENT_3D('',#511,#423,#424);
#343=DIRECTION('',(0.,0.,1.));
#344=DIRECTION('',(1.,0.,0.));
#345=DIRECTION('',(0.,0.,-1.));
#346=DIRECTION('',(-1.,0.,0.));
#347=DIRECTION('',(0.,0.,1.));
#348=DIRECTION('',(1.,0.,0.));
#349=DIRECTION('',(0.,0.,-1.));
#350=DIRECTION('',(0.,0.,1.));
#351=DIRECTION('',(1.,0.,0.));
#352=DIRECTION('',(0.,0.,-1.));
#353=DIRECTION('',(-1.,0.,0.));
#354=DIRECTION('',(0.,0.,1.));
#355=DIRECTION('',(0.,1.,0.));
#356=DIRECTION('',(0.,0.,-1.));
#357=DIRECTION('',(0.,1.,0.));
#358=DIRECTION('',(-0.891006524188368,-0.453990499739547,0.));
#359=DIRECTION('',(0.453990499739547,-0.891006524188368,0.));
#360=DIRECTION('',(-0.453990499739547,0.891006524188368,0.));
#361=DIRECTION('',(0.,0.,-1.));
#362=DIRECTION('',(-0.453990499739547,0.891006524188368,0.));
#363=DIRECTION('',(4.74750797315022E-16,-1.,0.));
#364=DIRECTION('',(1.,4.74750797315022E-16,0.));
#365=DIRECTION('',(-1.,-4.74750797315022E-16,0.));
#366=DIRECTION('',(0.,0.,-1.));
#367=DIRECTION('',(-1.,-4.74750797315022E-16,0.));
#368=DIRECTION('',(-0.891006524188368,0.453990499739546,0.));
#369=DIRECTION('',(-0.453990499739546,-0.891006524188368,0.));
#370=DIRECTION('',(0.453990499739546,0.891006524188368,0.));
#371=DIRECTION('',(0.,0.,-1.));
#372=DIRECTION('',(0.453990499739546,0.891006524188368,0.));
#373=DIRECTION('',(-1.,0.,0.));
#374=DIRECTION('',(0.,0.,1.));
#375=DIRECTION('',(0.,1.,0.));
#376=DIRECTION('',(0.,0.,-1.));
#377=DIRECTION('',(0.,1.,0.));
#378=DIRECTION('',(0.,0.,-1.));
#379=DIRECTION('',(-1.,0.,0.));
#380=DIRECTION('',(0.,0.,1.));
#381=DIRECTION('',(1.,0.,0.));
#382=DIRECTION('',(0.,0.,-1.));
#383=DIRECTION('',(0.,0.,1.));
#384=DIRECTION('',(1.,0.,0.));
#385=DIRECTION('',(1.08406666415248E-16,-1.,0.));
#386=DIRECTION('',(1.,1.08406666415248E-16,0.));
#387=DIRECTION('',(-1.,-1.08406666415248E-16,0.));
#388=DIRECTION('',(0.,0.,-1.));
#389=DIRECTION('',(-1.,-1.08406666415248E-16,0.));
#390=DIRECTION('',(0.,0.,-1.));
#391=DIRECTION('',(-1.,0.,0.));
#392=DIRECTION('',(0.,0.,1.));
#393=DIRECTION('',(1.,0.,0.));
#394=DIRECTION('',(0.,0.,-1.));
#395=DIRECTION('',(0.,0.,1.));
#396=DIRECTION('',(1.,0.,0.));
#397=DIRECTION('',(-1.,0.,0.));
#398=DIRECTION('',(0.,0.,1.));
#399=DIRECTION('',(0.,1.,0.));
#400=DIRECTION('',(0.,0.,-1.));
#401=DIRECTION('',(0.,1.,0.));
#402=DIRECTION('',(-0.891006524188368,-0.453990499739546,0.));
#403=DIRECTION('',(0.453990499739546,-0.891006524188368,0.));
#404=DIRECTION('',(-0.453990499739546,0.891006524188368,0.));
#405=DIRECTION('',(0.,0.,-1.));
#406=DIRECTION('',(-0.453990499739546,0.891006524188368,0.));
#407=DIRECTION('',(4.74750797315022E-16,-1.,0.));
#408=DIRECTION('',(1.,4.74750797315022E-16,0.));
#409=DIRECTION('',(-1.,-4.74750797315022E-16,0.));
#410=DIRECTION('',(0.,0.,-1.));
#411=DIRECTION('',(-1.,-4.74750797315022E-16,0.));
#412=DIRECTION('',(-0.891006524188368,0.453990499739547,0.));
#413=DIRECTION('',(-0.453990499739547,-0.891006524188368,0.));
#414=DIRECTION('',(0.453990499739547,0.891006524188368,0.));
#415=DIRECTION('',(0.,0.,-1.));
#416=DIRECTION('',(0.453990499739547,0.891006524188368,0.));
#417=DIRECTION('',(-1.,0.,0.));
#418=DIRECTION('',(0.,0.,1.));
#419=DIRECTION('',(0.,1.,0.));
#420=DIRECTION('',(0.,1.,0.));
#421=DIRECTION('',(0.,0.,1.));
#422=DIRECTION('',(1.,0.,0.));
#423=DIRECTION('',(0.,0.,1.));
#424=DIRECTION('',(1.,0.,0.));
#425=CARTESIAN_POINT('',(0.,0.,0.));
#426=CARTESIAN_POINT('',(0.,-2.64401243935913E-19,0.00025));
#427=CARTESIAN_POINT('',(0.,-2.64401243935913E-19,0.));
#428=CARTESIAN_POINT('',(-0.004318,5.28802487871827E-19,0.));
#429=CARTESIAN_POINT('',(0.004318,0.,0.));
#430=CARTESIAN_POINT('',(-0.004318,5.28802487871827E-19,0.00025));
#431=CARTESIAN_POINT('',(-0.004318,5.28802487871827E-19,0.00025));
#432=CARTESIAN_POINT('',(0.,-2.64401243935913E-19,0.00025));
#433=CARTESIAN_POINT('',(0.004318,0.,0.00025));
#434=CARTESIAN_POINT('',(0.004318,0.,0.00025));
#435=CARTESIAN_POINT('',(-0.004318,0.0040005,0.00025));
#436=CARTESIAN_POINT('',(-0.004318,0.0040005,0.));
#437=CARTESIAN_POINT('',(-0.004318,0.008001,0.));
#438=CARTESIAN_POINT('',(-0.004318,0.008001,0.00025));
#439=CARTESIAN_POINT('',(-0.004318,0.008001,0.00025));
#440=CARTESIAN_POINT('',(-0.004318,0.0040005,0.00025));
#441=CARTESIAN_POINT('',(-0.00470625839251475,0.008763,0.00025));
#442=CARTESIAN_POINT('',(-0.00470625839251475,0.008763,0.));
#443=CARTESIAN_POINT('',(-0.00509451678502951,0.009525,0.));
#444=CARTESIAN_POINT('',(-0.00509451678502951,0.009525,0.00025));
#445=CARTESIAN_POINT('',(-0.00509451678502951,0.009525,0.00025));
#446=CARTESIAN_POINT('',(-0.00470625839251475,0.008763,0.00025));
#447=CARTESIAN_POINT('',(-0.0069215,0.009525,0.00025));
#448=CARTESIAN_POINT('',(-0.0069215,0.009525,0.));
#449=CARTESIAN_POINT('',(-0.00874848321497049,0.009525,0.));
#450=CARTESIAN_POINT('',(-0.00874848321497049,0.009525,0.00025));
#451=CARTESIAN_POINT('',(-0.00874848321497049,0.009525,0.00025));
#452=CARTESIAN_POINT('',(-0.0069215,0.009525,0.00025));
#453=CARTESIAN_POINT('',(-0.00913674160748525,0.008763,0.00025));
#454=CARTESIAN_POINT('',(-0.00913674160748525,0.008763,0.));
#455=CARTESIAN_POINT('',(-0.009525,0.008001,0.));
#456=CARTESIAN_POINT('',(-0.009525,0.008001,0.00025));
#457=CARTESIAN_POINT('',(-0.009525,0.008001,0.00025));
#458=CARTESIAN_POINT('',(-0.00913674160748525,0.008763,0.00025));
#459=CARTESIAN_POINT('',(-0.009525,0.,0.00025));
#460=CARTESIAN_POINT('',(-0.009525,0.,0.));
#461=CARTESIAN_POINT('',(-0.009525,-0.008001,0.));
#462=CARTESIAN_POINT('',(-0.009525,-0.008001,0.00025));
#463=CARTESIAN_POINT('',(-0.009525,-0.008001,0.00025));
#464=CARTESIAN_POINT('',(-0.009525,0.,0.00025));
#465=CARTESIAN_POINT('',(-0.008001,-0.008001,0.00025));
#466=CARTESIAN_POINT('',(-0.008001,-0.008001,0.));
#467=CARTESIAN_POINT('',(-0.008001,-0.009525,0.));
#468=CARTESIAN_POINT('',(-0.008001,-0.009525,0.00025));
#469=CARTESIAN_POINT('',(-0.008001,-0.009525,0.00025));
#470=CARTESIAN_POINT('',(-0.008001,-0.008001,0.00025));
#471=CARTESIAN_POINT('',(-1.7347234759768E-18,-0.009525,0.00025));
#472=CARTESIAN_POINT('',(-1.7347234759768E-18,-0.009525,0.));
#473=CARTESIAN_POINT('',(0.008001,-0.009525,0.));
#474=CARTESIAN_POINT('',(0.008001,-0.009525,0.00025));
#475=CARTESIAN_POINT('',(0.008001,-0.009525,0.00025));
#476=CARTESIAN_POINT('',(-1.7347234759768E-18,-0.009525,0.00025));
#477=CARTESIAN_POINT('',(0.008001,-0.008001,0.00025));
#478=CARTESIAN_POINT('',(0.008001,-0.008001,0.));
#479=CARTESIAN_POINT('',(0.009525,-0.008001,0.));
#480=CARTESIAN_POINT('',(0.009525,-0.008001,0.00025));
#481=CARTESIAN_POINT('',(0.009525,-0.008001,0.00025));
#482=CARTESIAN_POINT('',(0.008001,-0.008001,0.00025));
#483=CARTESIAN_POINT('',(0.009525,0.,0.00025));
#484=CARTESIAN_POINT('',(0.009525,0.,0.));
#485=CARTESIAN_POINT('',(0.009525,0.008001,0.));
#486=CARTESIAN_POINT('',(0.009525,0.008001,0.00025));
#487=CARTESIAN_POINT('',(0.009525,0.008001,0.00025));
#488=CARTESIAN_POINT('',(0.009525,0.,0.00025));
#489=CARTESIAN_POINT('',(0.00913674160748525,0.008763,0.00025));
#490=CARTESIAN_POINT('',(0.00913674160748525,0.008763,0.));
#491=CARTESIAN_POINT('',(0.00874848321497049,0.009525,0.));
#492=CARTESIAN_POINT('',(0.00874848321497049,0.009525,0.00025));
#493=CARTESIAN_POINT('',(0.00874848321497049,0.009525,0.00025));
#494=CARTESIAN_POINT('',(0.00913674160748525,0.008763,0.00025));
#495=CARTESIAN_POINT('',(0.0069215,0.009525,0.00025));
#496=CARTESIAN_POINT('',(0.0069215,0.009525,0.));
#497=CARTESIAN_POINT('',(0.00509451678502951,0.009525,0.));
#498=CARTESIAN_POINT('',(0.00509451678502951,0.009525,0.00025));
#499=CARTESIAN_POINT('',(0.00509451678502951,0.009525,0.00025));
#500=CARTESIAN_POINT('',(0.0069215,0.009525,0.00025));
#501=CARTESIAN_POINT('',(0.00470625839251475,0.008763,0.00025));
#502=CARTESIAN_POINT('',(0.00470625839251475,0.008763,0.));
#503=CARTESIAN_POINT('',(0.004318,0.008001,0.));
#504=CARTESIAN_POINT('',(0.004318,0.008001,0.00025));
#505=CARTESIAN_POINT('',(0.004318,0.008001,0.00025));
#506=CARTESIAN_POINT('',(0.00470625839251475,0.008763,0.00025));
#507=CARTESIAN_POINT('',(0.004318,0.0040005,0.00025));
#508=CARTESIAN_POINT('',(0.004318,0.0040005,0.));
#509=CARTESIAN_POINT('',(0.004318,0.0040005,0.00025));
#510=CARTESIAN_POINT('',(0.,-1.7347234759768E-18,0.00025));
#511=CARTESIAN_POINT('',(0.,-1.7347234759768E-18,0.));
#512=MECHANICAL_DESIGN_GEOMETRIC_PRESENTATION_REPRESENTATION('',(#309),
#513);
#513=(
GEOMETRIC_REPRESENTATION_CONTEXT(3)
GLOBAL_UNCERTAINTY_ASSIGNED_CONTEXT((#514))
GLOBAL_UNIT_ASSIGNED_CONTEXT((#517,#516,#515))
REPRESENTATION_CONTEXT('DSCH057-M025','TOP_LEVEL_ASSEMBLY_PART')
);
#514=UNCERTAINTY_MEASURE_WITH_UNIT(LENGTH_MEASURE(5.E-6),#517,
'DISTANCE_ACCURACY_VALUE','Maximum Tolerance applied to model');
#515=(
NAMED_UNIT(*)
SI_UNIT($,.STERADIAN.)
SOLID_ANGLE_UNIT()
);
#516=(
NAMED_UNIT(*)
PLANE_ANGLE_UNIT()
SI_UNIT($,.RADIAN.)
);
#517=(
LENGTH_UNIT()
NAMED_UNIT(*)
SI_UNIT($,.METRE.)
);
#518=PRODUCT_DEFINITION_SHAPE('','',#519);
#519=PRODUCT_DEFINITION('','',#521,#520);
#520=PRODUCT_DEFINITION_CONTEXT('',#527,'design');
#521=PRODUCT_DEFINITION_FORMATION_WITH_SPECIFIED_SOURCE('','',#523,
 .NOT_KNOWN.);
#522=PRODUCT_RELATED_PRODUCT_CATEGORY('','',(#523));
#523=PRODUCT('DSCH057-M025','DSCH057-M025','DSCH057-M025',(#525));
#524=PRODUCT_CATEGORY('','');
#525=PRODUCT_CONTEXT('',#527,'mechanical');
#526=APPLICATION_PROTOCOL_DEFINITION('international standard',
'ap242_managed_model_based_3d_engineering',2011,#527);
#527=APPLICATION_CONTEXT('managed model based 3d engineering');
ENDSEC;
END-ISO-10303-21;
