ISO-10303-21;
HEADER;
/* Generated by software containing ST-Developer
 * from STEP Tools, Inc. (www.steptools.com) 
 */
/* OPTION: using custom renumber hook */

FILE_DESCRIPTION(
/* description */ ('STEP AP242',
'CAx-IF Rec.Pracs.---Representation and Presentation of Product Manufa
cturing Information (PMI)---4.0---2014-10-13',
'CAx-IF Rec.Pracs.---3D Tessellated Geometry---0.4---2014-09-14','2;1'),

/* implementation_level */ '2;1');

FILE_NAME(
/* name */ '627a6ab76592a2203acb9025',
/* time_stamp */ '2022-05-10T13:37:59+00:00',
/* author */ (''),
/* organization */ (''),
/* preprocessor_version */ 'ST-DEVELOPER v18.101',
/* originating_system */ '  ',
/* authorisation */ '  ');

FILE_SCHEMA (('AP242_MANAGED_MODEL_BASED_3D_ENGINEERING_MIM_LF { 1 0 10303 442 1 1 4 }'));
ENDSEC;

DATA;
#10=SHAPE_REPRESENTATION_RELATIONSHIP('','',#443,#11);
#11=ADVANCED_BREP_SHAPE_REPRESENTATION('',(#441),#713);
#12=CIRCLE('',#448,0.004318);
#13=CIRCLE('',#449,0.004318);
#14=CIRCLE('',#456,0.001524);
#15=CIRCLE('',#457,0.001524);
#16=CIRCLE('',#460,0.001524);
#17=CIRCLE('',#461,0.001524);
#18=CIRCLE('',#468,0.004318);
#19=CIRCLE('',#469,0.004318);
#20=CYLINDRICAL_SURFACE('',#447,0.004318);
#21=CYLINDRICAL_SURFACE('',#455,0.001524);
#22=CYLINDRICAL_SURFACE('',#459,0.001524);
#23=CYLINDRICAL_SURFACE('',#467,0.004318);
#24=ORIENTED_EDGE('',*,*,#144,.F.);
#25=ORIENTED_EDGE('',*,*,#145,.F.);
#26=ORIENTED_EDGE('',*,*,#146,.T.);
#27=ORIENTED_EDGE('',*,*,#147,.T.);
#28=ORIENTED_EDGE('',*,*,#148,.F.);
#29=ORIENTED_EDGE('',*,*,#149,.F.);
#30=ORIENTED_EDGE('',*,*,#150,.T.);
#31=ORIENTED_EDGE('',*,*,#145,.T.);
#32=ORIENTED_EDGE('',*,*,#151,.F.);
#33=ORIENTED_EDGE('',*,*,#152,.F.);
#34=ORIENTED_EDGE('',*,*,#153,.T.);
#35=ORIENTED_EDGE('',*,*,#149,.T.);
#36=ORIENTED_EDGE('',*,*,#154,.T.);
#37=ORIENTED_EDGE('',*,*,#155,.F.);
#38=ORIENTED_EDGE('',*,*,#156,.F.);
#39=ORIENTED_EDGE('',*,*,#152,.T.);
#40=ORIENTED_EDGE('',*,*,#157,.T.);
#41=ORIENTED_EDGE('',*,*,#158,.F.);
#42=ORIENTED_EDGE('',*,*,#159,.F.);
#43=ORIENTED_EDGE('',*,*,#155,.T.);
#44=ORIENTED_EDGE('',*,*,#160,.T.);
#45=ORIENTED_EDGE('',*,*,#161,.F.);
#46=ORIENTED_EDGE('',*,*,#162,.F.);
#47=ORIENTED_EDGE('',*,*,#158,.T.);
#48=ORIENTED_EDGE('',*,*,#163,.F.);
#49=ORIENTED_EDGE('',*,*,#164,.F.);
#50=ORIENTED_EDGE('',*,*,#165,.T.);
#51=ORIENTED_EDGE('',*,*,#161,.T.);
#52=ORIENTED_EDGE('',*,*,#166,.F.);
#53=ORIENTED_EDGE('',*,*,#167,.F.);
#54=ORIENTED_EDGE('',*,*,#168,.T.);
#55=ORIENTED_EDGE('',*,*,#164,.T.);
#56=ORIENTED_EDGE('',*,*,#169,.T.);
#57=ORIENTED_EDGE('',*,*,#170,.F.);
#58=ORIENTED_EDGE('',*,*,#171,.F.);
#59=ORIENTED_EDGE('',*,*,#167,.T.);
#60=ORIENTED_EDGE('',*,*,#172,.F.);
#61=ORIENTED_EDGE('',*,*,#173,.F.);
#62=ORIENTED_EDGE('',*,*,#174,.T.);
#63=ORIENTED_EDGE('',*,*,#170,.T.);
#64=ORIENTED_EDGE('',*,*,#175,.T.);
#65=ORIENTED_EDGE('',*,*,#176,.F.);
#66=ORIENTED_EDGE('',*,*,#177,.F.);
#67=ORIENTED_EDGE('',*,*,#173,.T.);
#68=ORIENTED_EDGE('',*,*,#178,.T.);
#69=ORIENTED_EDGE('',*,*,#179,.F.);
#70=ORIENTED_EDGE('',*,*,#180,.F.);
#71=ORIENTED_EDGE('',*,*,#176,.T.);
#72=ORIENTED_EDGE('',*,*,#181,.T.);
#73=ORIENTED_EDGE('',*,*,#182,.F.);
#74=ORIENTED_EDGE('',*,*,#183,.F.);
#75=ORIENTED_EDGE('',*,*,#179,.T.);
#76=ORIENTED_EDGE('',*,*,#184,.T.);
#77=ORIENTED_EDGE('',*,*,#185,.F.);
#78=ORIENTED_EDGE('',*,*,#186,.F.);
#79=ORIENTED_EDGE('',*,*,#182,.T.);
#80=ORIENTED_EDGE('',*,*,#187,.F.);
#81=ORIENTED_EDGE('',*,*,#188,.F.);
#82=ORIENTED_EDGE('',*,*,#189,.T.);
#83=ORIENTED_EDGE('',*,*,#185,.T.);
#84=ORIENTED_EDGE('',*,*,#190,.F.);
#85=ORIENTED_EDGE('',*,*,#191,.F.);
#86=ORIENTED_EDGE('',*,*,#192,.T.);
#87=ORIENTED_EDGE('',*,*,#188,.T.);
#88=ORIENTED_EDGE('',*,*,#193,.T.);
#89=ORIENTED_EDGE('',*,*,#194,.F.);
#90=ORIENTED_EDGE('',*,*,#195,.F.);
#91=ORIENTED_EDGE('',*,*,#191,.T.);
#92=ORIENTED_EDGE('',*,*,#196,.T.);
#93=ORIENTED_EDGE('',*,*,#197,.F.);
#94=ORIENTED_EDGE('',*,*,#198,.F.);
#95=ORIENTED_EDGE('',*,*,#194,.T.);
#96=ORIENTED_EDGE('',*,*,#199,.T.);
#97=ORIENTED_EDGE('',*,*,#200,.F.);
#98=ORIENTED_EDGE('',*,*,#201,.F.);
#99=ORIENTED_EDGE('',*,*,#197,.T.);
#100=ORIENTED_EDGE('',*,*,#202,.T.);
#101=ORIENTED_EDGE('',*,*,#147,.F.);
#102=ORIENTED_EDGE('',*,*,#203,.F.);
#103=ORIENTED_EDGE('',*,*,#200,.T.);
#104=ORIENTED_EDGE('',*,*,#146,.F.);
#105=ORIENTED_EDGE('',*,*,#150,.F.);
#106=ORIENTED_EDGE('',*,*,#153,.F.);
#107=ORIENTED_EDGE('',*,*,#156,.T.);
#108=ORIENTED_EDGE('',*,*,#159,.T.);
#109=ORIENTED_EDGE('',*,*,#162,.T.);
#110=ORIENTED_EDGE('',*,*,#165,.F.);
#111=ORIENTED_EDGE('',*,*,#168,.F.);
#112=ORIENTED_EDGE('',*,*,#171,.T.);
#113=ORIENTED_EDGE('',*,*,#174,.F.);
#114=ORIENTED_EDGE('',*,*,#177,.T.);
#115=ORIENTED_EDGE('',*,*,#180,.T.);
#116=ORIENTED_EDGE('',*,*,#183,.T.);
#117=ORIENTED_EDGE('',*,*,#186,.T.);
#118=ORIENTED_EDGE('',*,*,#189,.F.);
#119=ORIENTED_EDGE('',*,*,#192,.F.);
#120=ORIENTED_EDGE('',*,*,#195,.T.);
#121=ORIENTED_EDGE('',*,*,#198,.T.);
#122=ORIENTED_EDGE('',*,*,#201,.T.);
#123=ORIENTED_EDGE('',*,*,#203,.T.);
#124=ORIENTED_EDGE('',*,*,#144,.T.);
#125=ORIENTED_EDGE('',*,*,#202,.F.);
#126=ORIENTED_EDGE('',*,*,#199,.F.);
#127=ORIENTED_EDGE('',*,*,#196,.F.);
#128=ORIENTED_EDGE('',*,*,#193,.F.);
#129=ORIENTED_EDGE('',*,*,#190,.T.);
#130=ORIENTED_EDGE('',*,*,#187,.T.);
#131=ORIENTED_EDGE('',*,*,#184,.F.);
#132=ORIENTED_EDGE('',*,*,#181,.F.);
#133=ORIENTED_EDGE('',*,*,#178,.F.);
#134=ORIENTED_EDGE('',*,*,#175,.F.);
#135=ORIENTED_EDGE('',*,*,#172,.T.);
#136=ORIENTED_EDGE('',*,*,#169,.F.);
#137=ORIENTED_EDGE('',*,*,#166,.T.);
#138=ORIENTED_EDGE('',*,*,#163,.T.);
#139=ORIENTED_EDGE('',*,*,#160,.F.);
#140=ORIENTED_EDGE('',*,*,#157,.F.);
#141=ORIENTED_EDGE('',*,*,#154,.F.);
#142=ORIENTED_EDGE('',*,*,#151,.T.);
#143=ORIENTED_EDGE('',*,*,#148,.T.);
#144=EDGE_CURVE('',#204,#205,#244,.T.);
#145=EDGE_CURVE('',#206,#204,#245,.T.);
#146=EDGE_CURVE('',#206,#207,#246,.T.);
#147=EDGE_CURVE('',#207,#205,#247,.T.);
#148=EDGE_CURVE('',#208,#204,#248,.T.);
#149=EDGE_CURVE('',#209,#208,#249,.T.);
#150=EDGE_CURVE('',#209,#206,#250,.T.);
#151=EDGE_CURVE('',#210,#208,#12,.T.);
#152=EDGE_CURVE('',#211,#210,#251,.T.);
#153=EDGE_CURVE('',#211,#209,#13,.T.);
#154=EDGE_CURVE('',#210,#212,#252,.T.);
#155=EDGE_CURVE('',#213,#212,#253,.T.);
#156=EDGE_CURVE('',#211,#213,#254,.T.);
#157=EDGE_CURVE('',#212,#214,#255,.T.);
#158=EDGE_CURVE('',#215,#214,#256,.T.);
#159=EDGE_CURVE('',#213,#215,#257,.T.);
#160=EDGE_CURVE('',#214,#216,#258,.T.);
#161=EDGE_CURVE('',#217,#216,#259,.T.);
#162=EDGE_CURVE('',#215,#217,#260,.T.);
#163=EDGE_CURVE('',#218,#216,#261,.T.);
#164=EDGE_CURVE('',#219,#218,#262,.T.);
#165=EDGE_CURVE('',#219,#217,#263,.T.);
#166=EDGE_CURVE('',#220,#218,#264,.T.);
#167=EDGE_CURVE('',#221,#220,#265,.T.);
#168=EDGE_CURVE('',#221,#219,#266,.T.);
#169=EDGE_CURVE('',#220,#222,#14,.T.);
#170=EDGE_CURVE('',#223,#222,#267,.T.);
#171=EDGE_CURVE('',#221,#223,#15,.T.);
#172=EDGE_CURVE('',#224,#222,#268,.T.);
#173=EDGE_CURVE('',#225,#224,#269,.T.);
#174=EDGE_CURVE('',#225,#223,#270,.T.);
#175=EDGE_CURVE('',#224,#226,#16,.T.);
#176=EDGE_CURVE('',#227,#226,#271,.T.);
#177=EDGE_CURVE('',#225,#227,#17,.T.);
#178=EDGE_CURVE('',#226,#228,#272,.T.);
#179=EDGE_CURVE('',#229,#228,#273,.T.);
#180=EDGE_CURVE('',#227,#229,#274,.T.);
#181=EDGE_CURVE('',#228,#230,#275,.T.);
#182=EDGE_CURVE('',#231,#230,#276,.T.);
#183=EDGE_CURVE('',#229,#231,#277,.T.);
#184=EDGE_CURVE('',#230,#232,#278,.T.);
#185=EDGE_CURVE('',#233,#232,#279,.T.);
#186=EDGE_CURVE('',#231,#233,#280,.T.);
#187=EDGE_CURVE('',#234,#232,#281,.T.);
#188=EDGE_CURVE('',#235,#234,#282,.T.);
#189=EDGE_CURVE('',#235,#233,#283,.T.);
#190=EDGE_CURVE('',#236,#234,#284,.T.);
#191=EDGE_CURVE('',#237,#236,#285,.T.);
#192=EDGE_CURVE('',#237,#235,#286,.T.);
#193=EDGE_CURVE('',#236,#238,#18,.T.);
#194=EDGE_CURVE('',#239,#238,#287,.T.);
#195=EDGE_CURVE('',#237,#239,#19,.T.);
#196=EDGE_CURVE('',#238,#240,#288,.T.);
#197=EDGE_CURVE('',#241,#240,#289,.T.);
#198=EDGE_CURVE('',#239,#241,#290,.T.);
#199=EDGE_CURVE('',#240,#242,#291,.T.);
#200=EDGE_CURVE('',#243,#242,#292,.T.);
#201=EDGE_CURVE('',#241,#243,#293,.T.);
#202=EDGE_CURVE('',#242,#205,#294,.T.);
#203=EDGE_CURVE('',#243,#207,#295,.T.);
#204=VERTEX_POINT('',#592);
#205=VERTEX_POINT('',#593);
#206=VERTEX_POINT('',#595);
#207=VERTEX_POINT('',#597);
#208=VERTEX_POINT('',#601);
#209=VERTEX_POINT('',#603);
#210=VERTEX_POINT('',#607);
#211=VERTEX_POINT('',#609);
#212=VERTEX_POINT('',#613);
#213=VERTEX_POINT('',#615);
#214=VERTEX_POINT('',#619);
#215=VERTEX_POINT('',#621);
#216=VERTEX_POINT('',#625);
#217=VERTEX_POINT('',#627);
#218=VERTEX_POINT('',#631);
#219=VERTEX_POINT('',#633);
#220=VERTEX_POINT('',#637);
#221=VERTEX_POINT('',#639);
#222=VERTEX_POINT('',#643);
#223=VERTEX_POINT('',#645);
#224=VERTEX_POINT('',#649);
#225=VERTEX_POINT('',#651);
#226=VERTEX_POINT('',#655);
#227=VERTEX_POINT('',#657);
#228=VERTEX_POINT('',#661);
#229=VERTEX_POINT('',#663);
#230=VERTEX_POINT('',#667);
#231=VERTEX_POINT('',#669);
#232=VERTEX_POINT('',#673);
#233=VERTEX_POINT('',#675);
#234=VERTEX_POINT('',#679);
#235=VERTEX_POINT('',#681);
#236=VERTEX_POINT('',#685);
#237=VERTEX_POINT('',#687);
#238=VERTEX_POINT('',#691);
#239=VERTEX_POINT('',#693);
#240=VERTEX_POINT('',#697);
#241=VERTEX_POINT('',#699);
#242=VERTEX_POINT('',#703);
#243=VERTEX_POINT('',#705);
#244=LINE('',#591,#296);
#245=LINE('',#594,#297);
#246=LINE('',#596,#298);
#247=LINE('',#598,#299);
#248=LINE('',#600,#300);
#249=LINE('',#602,#301);
#250=LINE('',#604,#302);
#251=LINE('',#608,#303);
#252=LINE('',#612,#304);
#253=LINE('',#614,#305);
#254=LINE('',#616,#306);
#255=LINE('',#618,#307);
#256=LINE('',#620,#308);
#257=LINE('',#622,#309);
#258=LINE('',#624,#310);
#259=LINE('',#626,#311);
#260=LINE('',#628,#312);
#261=LINE('',#630,#313);
#262=LINE('',#632,#314);
#263=LINE('',#634,#315);
#264=LINE('',#636,#316);
#265=LINE('',#638,#317);
#266=LINE('',#640,#318);
#267=LINE('',#644,#319);
#268=LINE('',#648,#320);
#269=LINE('',#650,#321);
#270=LINE('',#652,#322);
#271=LINE('',#656,#323);
#272=LINE('',#660,#324);
#273=LINE('',#662,#325);
#274=LINE('',#664,#326);
#275=LINE('',#666,#327);
#276=LINE('',#668,#328);
#277=LINE('',#670,#329);
#278=LINE('',#672,#330);
#279=LINE('',#674,#331);
#280=LINE('',#676,#332);
#281=LINE('',#678,#333);
#282=LINE('',#680,#334);
#283=LINE('',#682,#335);
#284=LINE('',#684,#336);
#285=LINE('',#686,#337);
#286=LINE('',#688,#338);
#287=LINE('',#692,#339);
#288=LINE('',#696,#340);
#289=LINE('',#698,#341);
#290=LINE('',#700,#342);
#291=LINE('',#702,#343);
#292=LINE('',#704,#344);
#293=LINE('',#706,#345);
#294=LINE('',#708,#346);
#295=LINE('',#709,#347);
#296=VECTOR('',#479,1.);
#297=VECTOR('',#480,1.);
#298=VECTOR('',#481,1.);
#299=VECTOR('',#482,1.);
#300=VECTOR('',#485,1.);
#301=VECTOR('',#486,1.);
#302=VECTOR('',#487,1.);
#303=VECTOR('',#492,1.);
#304=VECTOR('',#497,1.);
#305=VECTOR('',#498,1.);
#306=VECTOR('',#499,1.);
#307=VECTOR('',#502,1.);
#308=VECTOR('',#503,1.);
#309=VECTOR('',#504,1.);
#310=VECTOR('',#507,1.);
#311=VECTOR('',#508,1.);
#312=VECTOR('',#509,1.);
#313=VECTOR('',#512,1.);
#314=VECTOR('',#513,1.);
#315=VECTOR('',#514,1.);
#316=VECTOR('',#517,1.);
#317=VECTOR('',#518,1.);
#318=VECTOR('',#519,1.);
#319=VECTOR('',#524,1.);
#320=VECTOR('',#529,1.);
#321=VECTOR('',#530,1.);
#322=VECTOR('',#531,1.);
#323=VECTOR('',#536,1.);
#324=VECTOR('',#541,1.);
#325=VECTOR('',#542,1.);
#326=VECTOR('',#543,1.);
#327=VECTOR('',#546,1.);
#328=VECTOR('',#547,1.);
#329=VECTOR('',#548,1.);
#330=VECTOR('',#551,1.);
#331=VECTOR('',#552,1.);
#332=VECTOR('',#553,1.);
#333=VECTOR('',#556,1.);
#334=VECTOR('',#557,1.);
#335=VECTOR('',#558,1.);
#336=VECTOR('',#561,1.);
#337=VECTOR('',#562,1.);
#338=VECTOR('',#563,1.);
#339=VECTOR('',#568,1.);
#340=VECTOR('',#573,1.);
#341=VECTOR('',#574,1.);
#342=VECTOR('',#575,1.);
#343=VECTOR('',#578,1.);
#344=VECTOR('',#579,1.);
#345=VECTOR('',#580,1.);
#346=VECTOR('',#583,1.);
#347=VECTOR('',#584,1.);
#348=EDGE_LOOP('',(#24,#25,#26,#27));
#349=EDGE_LOOP('',(#28,#29,#30,#31));
#350=EDGE_LOOP('',(#32,#33,#34,#35));
#351=EDGE_LOOP('',(#36,#37,#38,#39));
#352=EDGE_LOOP('',(#40,#41,#42,#43));
#353=EDGE_LOOP('',(#44,#45,#46,#47));
#354=EDGE_LOOP('',(#48,#49,#50,#51));
#355=EDGE_LOOP('',(#52,#53,#54,#55));
#356=EDGE_LOOP('',(#56,#57,#58,#59));
#357=EDGE_LOOP('',(#60,#61,#62,#63));
#358=EDGE_LOOP('',(#64,#65,#66,#67));
#359=EDGE_LOOP('',(#68,#69,#70,#71));
#360=EDGE_LOOP('',(#72,#73,#74,#75));
#361=EDGE_LOOP('',(#76,#77,#78,#79));
#362=EDGE_LOOP('',(#80,#81,#82,#83));
#363=EDGE_LOOP('',(#84,#85,#86,#87));
#364=EDGE_LOOP('',(#88,#89,#90,#91));
#365=EDGE_LOOP('',(#92,#93,#94,#95));
#366=EDGE_LOOP('',(#96,#97,#98,#99));
#367=EDGE_LOOP('',(#100,#101,#102,#103));
#368=EDGE_LOOP('',(#104,#105,#106,#107,#108,#109,#110,#111,#112,#113,#114,
#115,#116,#117,#118,#119,#120,#121,#122,#123));
#369=EDGE_LOOP('',(#124,#125,#126,#127,#128,#129,#130,#131,#132,#133,#134,
#135,#136,#137,#138,#139,#140,#141,#142,#143));
#370=FACE_BOUND('',#348,.T.);
#371=FACE_BOUND('',#349,.T.);
#372=FACE_BOUND('',#350,.T.);
#373=FACE_BOUND('',#351,.T.);
#374=FACE_BOUND('',#352,.T.);
#375=FACE_BOUND('',#353,.T.);
#376=FACE_BOUND('',#354,.T.);
#377=FACE_BOUND('',#355,.T.);
#378=FACE_BOUND('',#356,.T.);
#379=FACE_BOUND('',#357,.T.);
#380=FACE_BOUND('',#358,.T.);
#381=FACE_BOUND('',#359,.T.);
#382=FACE_BOUND('',#360,.T.);
#383=FACE_BOUND('',#361,.T.);
#384=FACE_BOUND('',#362,.T.);
#385=FACE_BOUND('',#363,.T.);
#386=FACE_BOUND('',#364,.T.);
#387=FACE_BOUND('',#365,.T.);
#388=FACE_BOUND('',#366,.T.);
#389=FACE_BOUND('',#367,.T.);
#390=FACE_BOUND('',#368,.T.);
#391=FACE_BOUND('',#369,.T.);
#392=PLANE('',#445);
#393=PLANE('',#446);
#394=PLANE('',#450);
#395=PLANE('',#451);
#396=PLANE('',#452);
#397=PLANE('',#453);
#398=PLANE('',#454);
#399=PLANE('',#458);
#400=PLANE('',#462);
#401=PLANE('',#463);
#402=PLANE('',#464);
#403=PLANE('',#465);
#404=PLANE('',#466);
#405=PLANE('',#470);
#406=PLANE('',#471);
#407=PLANE('',#472);
#408=PLANE('',#473);
#409=PLANE('',#474);
#410=ADVANCED_FACE('',(#370),#392,.T.);
#411=ADVANCED_FACE('',(#371),#393,.T.);
#412=ADVANCED_FACE('',(#372),#20,.F.);
#413=ADVANCED_FACE('',(#373),#394,.F.);
#414=ADVANCED_FACE('',(#374),#395,.F.);
#415=ADVANCED_FACE('',(#375),#396,.F.);
#416=ADVANCED_FACE('',(#376),#397,.T.);
#417=ADVANCED_FACE('',(#377),#398,.T.);
#418=ADVANCED_FACE('',(#378),#21,.T.);
#419=ADVANCED_FACE('',(#379),#399,.T.);
#420=ADVANCED_FACE('',(#380),#22,.T.);
#421=ADVANCED_FACE('',(#381),#400,.F.);
#422=ADVANCED_FACE('',(#382),#401,.F.);
#423=ADVANCED_FACE('',(#383),#402,.F.);
#424=ADVANCED_FACE('',(#384),#403,.T.);
#425=ADVANCED_FACE('',(#385),#404,.T.);
#426=ADVANCED_FACE('',(#386),#23,.F.);
#427=ADVANCED_FACE('',(#387),#405,.F.);
#428=ADVANCED_FACE('',(#388),#406,.F.);
#429=ADVANCED_FACE('',(#389),#407,.F.);
#430=ADVANCED_FACE('',(#390),#408,.T.);
#431=ADVANCED_FACE('',(#391),#409,.F.);
#432=CLOSED_SHELL('',(#410,#411,#412,#413,#414,#415,#416,#417,#418,#419,
#420,#421,#422,#423,#424,#425,#426,#427,#428,#429,#430,#431));
#433=STYLED_ITEM('',(#434),#441);
#434=PRESENTATION_STYLE_ASSIGNMENT((#435));
#435=SURFACE_STYLE_USAGE(.BOTH.,#436);
#436=SURFACE_SIDE_STYLE('',(#437));
#437=SURFACE_STYLE_FILL_AREA(#438);
#438=FILL_AREA_STYLE('',(#439));
#439=FILL_AREA_STYLE_COLOUR('',#440);
#440=COLOUR_RGB('',0.917647058823529,0.917647058823529,0.917647058823529);
#441=MANIFOLD_SOLID_BREP('DSCH058-M025',#432);
#442=SHAPE_DEFINITION_REPRESENTATION(#718,#443);
#443=SHAPE_REPRESENTATION('DSCH058-M025',(#444),#713);
#444=AXIS2_PLACEMENT_3D('',#589,#475,#476);
#445=AXIS2_PLACEMENT_3D('',#590,#477,#478);
#446=AXIS2_PLACEMENT_3D('',#599,#483,#484);
#447=AXIS2_PLACEMENT_3D('',#605,#488,#489);
#448=AXIS2_PLACEMENT_3D('',#606,#490,#491);
#449=AXIS2_PLACEMENT_3D('',#610,#493,#494);
#450=AXIS2_PLACEMENT_3D('',#611,#495,#496);
#451=AXIS2_PLACEMENT_3D('',#617,#500,#501);
#452=AXIS2_PLACEMENT_3D('',#623,#505,#506);
#453=AXIS2_PLACEMENT_3D('',#629,#510,#511);
#454=AXIS2_PLACEMENT_3D('',#635,#515,#516);
#455=AXIS2_PLACEMENT_3D('',#641,#520,#521);
#456=AXIS2_PLACEMENT_3D('',#642,#522,#523);
#457=AXIS2_PLACEMENT_3D('',#646,#525,#526);
#458=AXIS2_PLACEMENT_3D('',#647,#527,#528);
#459=AXIS2_PLACEMENT_3D('',#653,#532,#533);
#460=AXIS2_PLACEMENT_3D('',#654,#534,#535);
#461=AXIS2_PLACEMENT_3D('',#658,#537,#538);
#462=AXIS2_PLACEMENT_3D('',#659,#539,#540);
#463=AXIS2_PLACEMENT_3D('',#665,#544,#545);
#464=AXIS2_PLACEMENT_3D('',#671,#549,#550);
#465=AXIS2_PLACEMENT_3D('',#677,#554,#555);
#466=AXIS2_PLACEMENT_3D('',#683,#559,#560);
#467=AXIS2_PLACEMENT_3D('',#689,#564,#565);
#468=AXIS2_PLACEMENT_3D('',#690,#566,#567);
#469=AXIS2_PLACEMENT_3D('',#694,#569,#570);
#470=AXIS2_PLACEMENT_3D('',#695,#571,#572);
#471=AXIS2_PLACEMENT_3D('',#701,#576,#577);
#472=AXIS2_PLACEMENT_3D('',#707,#581,#582);
#473=AXIS2_PLACEMENT_3D('',#710,#585,#586);
#474=AXIS2_PLACEMENT_3D('',#711,#587,#588);
#475=DIRECTION('',(0.,0.,1.));
#476=DIRECTION('',(1.,0.,0.));
#477=DIRECTION('',(-0.891006524188368,0.453990499739546,0.));
#478=DIRECTION('',(-0.453990499739546,-0.891006524188368,0.));
#479=DIRECTION('',(0.453990499739546,0.891006524188368,0.));
#480=DIRECTION('',(0.,0.,-1.));
#481=DIRECTION('',(0.453990499739546,0.891006524188368,0.));
#482=DIRECTION('',(0.,0.,-1.));
#483=DIRECTION('',(-1.,0.,0.));
#484=DIRECTION('',(0.,0.,1.));
#485=DIRECTION('',(0.,1.,0.));
#486=DIRECTION('',(0.,0.,-1.));
#487=DIRECTION('',(0.,1.,0.));
#488=DIRECTION('',(0.,0.,-1.));
#489=DIRECTION('',(-1.,0.,0.));
#490=DIRECTION('',(0.,0.,1.));
#491=DIRECTION('',(1.,0.,0.));
#492=DIRECTION('',(0.,0.,-1.));
#493=DIRECTION('',(0.,0.,1.));
#494=DIRECTION('',(1.,0.,0.));
#495=DIRECTION('',(-1.,0.,0.));
#496=DIRECTION('',(0.,0.,1.));
#497=DIRECTION('',(0.,1.,0.));
#498=DIRECTION('',(0.,0.,-1.));
#499=DIRECTION('',(0.,1.,0.));
#500=DIRECTION('',(-0.891006524188368,-0.453990499739547,0.));
#501=DIRECTION('',(0.453990499739547,-0.891006524188368,0.));
#502=DIRECTION('',(-0.453990499739547,0.891006524188368,0.));
#503=DIRECTION('',(0.,0.,-1.));
#504=DIRECTION('',(-0.453990499739547,0.891006524188368,0.));
#505=DIRECTION('',(0.,-1.,0.));
#506=DIRECTION('',(0.,0.,-1.));
#507=DIRECTION('',(-1.,0.,0.));
#508=DIRECTION('',(0.,0.,-1.));
#509=DIRECTION('',(-1.,0.,0.));
#510=DIRECTION('',(-0.891006524188368,0.453990499739547,0.));
#511=DIRECTION('',(-0.453990499739547,-0.891006524188368,0.));
#512=DIRECTION('',(0.453990499739547,0.891006524188368,0.));
#513=DIRECTION('',(0.,0.,-1.));
#514=DIRECTION('',(0.453990499739547,0.891006524188368,0.));
#515=DIRECTION('',(-1.,0.,0.));
#516=DIRECTION('',(0.,0.,1.));
#517=DIRECTION('',(0.,1.,0.));
#518=DIRECTION('',(0.,0.,-1.));
#519=DIRECTION('',(0.,1.,0.));
#520=DIRECTION('',(0.,0.,-1.));
#521=DIRECTION('',(-1.,0.,0.));
#522=DIRECTION('',(0.,0.,1.));
#523=DIRECTION('',(1.,0.,0.));
#524=DIRECTION('',(0.,0.,-1.));
#525=DIRECTION('',(0.,0.,1.));
#526=DIRECTION('',(1.,0.,0.));
#527=DIRECTION('',(9.89799997704443E-17,-1.,0.));
#528=DIRECTION('',(1.,9.89799997704443E-17,0.));
#529=DIRECTION('',(-1.,-9.89799997704443E-17,0.));
#530=DIRECTION('',(0.,0.,-1.));
#531=DIRECTION('',(-1.,-9.89799997704443E-17,0.));
#532=DIRECTION('',(0.,0.,-1.));
#533=DIRECTION('',(-1.,0.,0.));
#534=DIRECTION('',(0.,0.,1.));
#535=DIRECTION('',(1.,0.,0.));
#536=DIRECTION('',(0.,0.,-1.));
#537=DIRECTION('',(0.,0.,1.));
#538=DIRECTION('',(1.,0.,0.));
#539=DIRECTION('',(-1.,0.,0.));
#540=DIRECTION('',(0.,0.,1.));
#541=DIRECTION('',(0.,1.,0.));
#542=DIRECTION('',(0.,0.,-1.));
#543=DIRECTION('',(0.,1.,0.));
#544=DIRECTION('',(-0.891006524188368,-0.453990499739547,0.));
#545=DIRECTION('',(0.453990499739547,-0.891006524188368,0.));
#546=DIRECTION('',(-0.453990499739547,0.891006524188368,0.));
#547=DIRECTION('',(0.,0.,-1.));
#548=DIRECTION('',(-0.453990499739547,0.891006524188368,0.));
#549=DIRECTION('',(0.,-1.,0.));
#550=DIRECTION('',(0.,0.,-1.));
#551=DIRECTION('',(-1.,0.,0.));
#552=DIRECTION('',(0.,0.,-1.));
#553=DIRECTION('',(-1.,0.,0.));
#554=DIRECTION('',(-0.891006524188368,0.453990499739547,0.));
#555=DIRECTION('',(-0.453990499739547,-0.891006524188368,0.));
#556=DIRECTION('',(0.453990499739547,0.891006524188368,0.));
#557=DIRECTION('',(0.,0.,-1.));
#558=DIRECTION('',(0.453990499739547,0.891006524188368,0.));
#559=DIRECTION('',(-1.,0.,0.));
#560=DIRECTION('',(0.,0.,1.));
#561=DIRECTION('',(0.,1.,0.));
#562=DIRECTION('',(0.,0.,-1.));
#563=DIRECTION('',(0.,1.,0.));
#564=DIRECTION('',(0.,0.,-1.));
#565=DIRECTION('',(-1.,0.,0.));
#566=DIRECTION('',(0.,0.,-1.));
#567=DIRECTION('',(1.,0.,0.));
#568=DIRECTION('',(0.,0.,-1.));
#569=DIRECTION('',(0.,0.,-1.));
#570=DIRECTION('',(1.,0.,0.));
#571=DIRECTION('',(-1.,0.,0.));
#572=DIRECTION('',(0.,0.,1.));
#573=DIRECTION('',(0.,1.,0.));
#574=DIRECTION('',(0.,0.,-1.));
#575=DIRECTION('',(0.,1.,0.));
#576=DIRECTION('',(-0.891006524188368,-0.453990499739546,0.));
#577=DIRECTION('',(0.453990499739546,-0.891006524188368,0.));
#578=DIRECTION('',(-0.453990499739546,0.891006524188368,0.));
#579=DIRECTION('',(0.,0.,-1.));
#580=DIRECTION('',(-0.453990499739546,0.891006524188368,0.));
#581=DIRECTION('',(0.,-1.,0.));
#582=DIRECTION('',(0.,0.,-1.));
#583=DIRECTION('',(-1.,0.,0.));
#584=DIRECTION('',(-1.,0.,0.));
#585=DIRECTION('',(0.,0.,1.));
#586=DIRECTION('',(1.,0.,0.));
#587=DIRECTION('',(0.,0.,1.));
#588=DIRECTION('',(1.,0.,0.));
#589=CARTESIAN_POINT('',(0.,0.,0.));
#590=CARTESIAN_POINT('',(-0.00481874160748525,0.011938,0.00025));
#591=CARTESIAN_POINT('',(-0.00481874160748525,0.011938,0.));
#592=CARTESIAN_POINT('',(-0.005207,0.011176,0.));
#593=CARTESIAN_POINT('',(-0.00443048321497049,0.0127,0.));
#594=CARTESIAN_POINT('',(-0.005207,0.011176,0.00025));
#595=CARTESIAN_POINT('',(-0.005207,0.011176,0.00025));
#596=CARTESIAN_POINT('',(-0.00481874160748525,0.011938,0.00025));
#597=CARTESIAN_POINT('',(-0.00443048321497049,0.0127,0.00025));
#598=CARTESIAN_POINT('',(-0.00443048321497049,0.0127,0.00025));
#599=CARTESIAN_POINT('',(-0.005207,0.005588,0.00025));
#600=CARTESIAN_POINT('',(-0.005207,0.005588,0.));
#601=CARTESIAN_POINT('',(-0.005207,-1.05760497574365E-18,0.));
#602=CARTESIAN_POINT('',(-0.005207,-1.05760497574365E-18,0.00025));
#603=CARTESIAN_POINT('',(-0.005207,-1.05760497574365E-18,0.00025));
#604=CARTESIAN_POINT('',(-0.005207,0.005588,0.00025));
#605=CARTESIAN_POINT('',(-0.009525,-2.64401243935913E-19,0.00025));
#606=CARTESIAN_POINT('',(-0.009525,-2.64401243935913E-19,0.));
#607=CARTESIAN_POINT('',(-0.013843,0.,0.));
#608=CARTESIAN_POINT('',(-0.013843,0.,0.00025));
#609=CARTESIAN_POINT('',(-0.013843,0.,0.00025));
#610=CARTESIAN_POINT('',(-0.009525,-2.64401243935913E-19,0.00025));
#611=CARTESIAN_POINT('',(-0.013843,0.005588,0.00025));
#612=CARTESIAN_POINT('',(-0.013843,0.005588,0.));
#613=CARTESIAN_POINT('',(-0.013843,0.011176,0.));
#614=CARTESIAN_POINT('',(-0.013843,0.011176,0.00025));
#615=CARTESIAN_POINT('',(-0.013843,0.011176,0.00025));
#616=CARTESIAN_POINT('',(-0.013843,0.005588,0.00025));
#617=CARTESIAN_POINT('',(-0.0142312583925147,0.011938,0.00025));
#618=CARTESIAN_POINT('',(-0.0142312583925147,0.011938,0.));
#619=CARTESIAN_POINT('',(-0.0146195167850295,0.0127,0.));
#620=CARTESIAN_POINT('',(-0.0146195167850295,0.0127,0.00025));
#621=CARTESIAN_POINT('',(-0.0146195167850295,0.0127,0.00025));
#622=CARTESIAN_POINT('',(-0.0142312583925147,0.011938,0.00025));
#623=CARTESIAN_POINT('',(-0.0164465,0.0127,0.00025));
#624=CARTESIAN_POINT('',(-0.0164465,0.0127,0.));
#625=CARTESIAN_POINT('',(-0.0182734832149705,0.0127,0.));
#626=CARTESIAN_POINT('',(-0.0182734832149705,0.0127,0.00025));
#627=CARTESIAN_POINT('',(-0.0182734832149705,0.0127,0.00025));
#628=CARTESIAN_POINT('',(-0.0164465,0.0127,0.00025));
#629=CARTESIAN_POINT('',(-0.0186617416074852,0.011938,0.00025));
#630=CARTESIAN_POINT('',(-0.0186617416074852,0.011938,0.));
#631=CARTESIAN_POINT('',(-0.01905,0.011176,0.));
#632=CARTESIAN_POINT('',(-0.01905,0.011176,0.00025));
#633=CARTESIAN_POINT('',(-0.01905,0.011176,0.00025));
#634=CARTESIAN_POINT('',(-0.0186617416074852,0.011938,0.00025));
#635=CARTESIAN_POINT('',(-0.01905,-1.7347234759768E-18,0.00025));
#636=CARTESIAN_POINT('',(-0.01905,-1.7347234759768E-18,0.));
#637=CARTESIAN_POINT('',(-0.01905,-0.011176,0.));
#638=CARTESIAN_POINT('',(-0.01905,-0.011176,0.00025));
#639=CARTESIAN_POINT('',(-0.01905,-0.011176,0.00025));
#640=CARTESIAN_POINT('',(-0.01905,-1.7347234759768E-18,0.00025));
#641=CARTESIAN_POINT('',(-0.017526,-0.011176,0.00025));
#642=CARTESIAN_POINT('',(-0.017526,-0.011176,0.));
#643=CARTESIAN_POINT('',(-0.017526,-0.0127,0.));
#644=CARTESIAN_POINT('',(-0.017526,-0.0127,0.00025));
#645=CARTESIAN_POINT('',(-0.017526,-0.0127,0.00025));
#646=CARTESIAN_POINT('',(-0.017526,-0.011176,0.00025));
#647=CARTESIAN_POINT('',(0.,-0.0127,0.00025));
#648=CARTESIAN_POINT('',(0.,-0.0127,0.));
#649=CARTESIAN_POINT('',(0.017526,-0.0127,0.));
#650=CARTESIAN_POINT('',(0.017526,-0.0127,0.00025));
#651=CARTESIAN_POINT('',(0.017526,-0.0127,0.00025));
#652=CARTESIAN_POINT('',(0.,-0.0127,0.00025));
#653=CARTESIAN_POINT('',(0.017526,-0.011176,0.00025));
#654=CARTESIAN_POINT('',(0.017526,-0.011176,0.));
#655=CARTESIAN_POINT('',(0.01905,-0.011176,0.));
#656=CARTESIAN_POINT('',(0.01905,-0.011176,0.00025));
#657=CARTESIAN_POINT('',(0.01905,-0.011176,0.00025));
#658=CARTESIAN_POINT('',(0.017526,-0.011176,0.00025));
#659=CARTESIAN_POINT('',(0.01905,0.,0.00025));
#660=CARTESIAN_POINT('',(0.01905,0.,0.));
#661=CARTESIAN_POINT('',(0.01905,0.011176,0.));
#662=CARTESIAN_POINT('',(0.01905,0.011176,0.00025));
#663=CARTESIAN_POINT('',(0.01905,0.011176,0.00025));
#664=CARTESIAN_POINT('',(0.01905,0.,0.00025));
#665=CARTESIAN_POINT('',(0.0186617416074852,0.011938,0.00025));
#666=CARTESIAN_POINT('',(0.0186617416074852,0.011938,0.));
#667=CARTESIAN_POINT('',(0.0182734832149705,0.0127,0.));
#668=CARTESIAN_POINT('',(0.0182734832149705,0.0127,0.00025));
#669=CARTESIAN_POINT('',(0.0182734832149705,0.0127,0.00025));
#670=CARTESIAN_POINT('',(0.0186617416074852,0.011938,0.00025));
#671=CARTESIAN_POINT('',(0.0164465,0.0127,0.00025));
#672=CARTESIAN_POINT('',(0.0164465,0.0127,0.));
#673=CARTESIAN_POINT('',(0.0146195167850295,0.0127,0.));
#674=CARTESIAN_POINT('',(0.0146195167850295,0.0127,0.00025));
#675=CARTESIAN_POINT('',(0.0146195167850295,0.0127,0.00025));
#676=CARTESIAN_POINT('',(0.0164465,0.0127,0.00025));
#677=CARTESIAN_POINT('',(0.0142312583925147,0.011938,0.00025));
#678=CARTESIAN_POINT('',(0.0142312583925147,0.011938,0.));
#679=CARTESIAN_POINT('',(0.013843,0.011176,0.));
#680=CARTESIAN_POINT('',(0.013843,0.011176,0.00025));
#681=CARTESIAN_POINT('',(0.013843,0.011176,0.00025));
#682=CARTESIAN_POINT('',(0.0142312583925147,0.011938,0.00025));
#683=CARTESIAN_POINT('',(0.013843,0.005588,0.00025));
#684=CARTESIAN_POINT('',(0.013843,0.005588,0.));
#685=CARTESIAN_POINT('',(0.013843,0.,0.));
#686=CARTESIAN_POINT('',(0.013843,0.,0.00025));
#687=CARTESIAN_POINT('',(0.013843,0.,0.00025));
#688=CARTESIAN_POINT('',(0.013843,0.005588,0.00025));
#689=CARTESIAN_POINT('',(0.009525,-2.64401243935913E-19,0.00025));
#690=CARTESIAN_POINT('',(0.009525,-2.64401243935913E-19,0.));
#691=CARTESIAN_POINT('',(0.005207,-1.05760497574365E-18,0.));
#692=CARTESIAN_POINT('',(0.005207,-1.05760497574365E-18,0.00025));
#693=CARTESIAN_POINT('',(0.005207,-1.05760497574365E-18,0.00025));
#694=CARTESIAN_POINT('',(0.009525,-2.64401243935913E-19,0.00025));
#695=CARTESIAN_POINT('',(0.005207,0.005588,0.00025));
#696=CARTESIAN_POINT('',(0.005207,0.005588,0.));
#697=CARTESIAN_POINT('',(0.005207,0.011176,0.));
#698=CARTESIAN_POINT('',(0.005207,0.011176,0.00025));
#699=CARTESIAN_POINT('',(0.005207,0.011176,0.00025));
#700=CARTESIAN_POINT('',(0.005207,0.005588,0.00025));
#701=CARTESIAN_POINT('',(0.00481874160748525,0.011938,0.00025));
#702=CARTESIAN_POINT('',(0.00481874160748525,0.011938,0.));
#703=CARTESIAN_POINT('',(0.00443048321497049,0.0127,0.));
#704=CARTESIAN_POINT('',(0.00443048321497049,0.0127,0.00025));
#705=CARTESIAN_POINT('',(0.00443048321497049,0.0127,0.00025));
#706=CARTESIAN_POINT('',(0.00481874160748525,0.011938,0.00025));
#707=CARTESIAN_POINT('',(0.,0.0127,0.00025));
#708=CARTESIAN_POINT('',(0.,0.0127,0.));
#709=CARTESIAN_POINT('',(0.,0.0127,0.00025));
#710=CARTESIAN_POINT('',(0.,0.,0.00025));
#711=CARTESIAN_POINT('',(0.,0.,0.));
#712=MECHANICAL_DESIGN_GEOMETRIC_PRESENTATION_REPRESENTATION('',(#433),
#713);
#713=(
GEOMETRIC_REPRESENTATION_CONTEXT(3)
GLOBAL_UNCERTAINTY_ASSIGNED_CONTEXT((#714))
GLOBAL_UNIT_ASSIGNED_CONTEXT((#717,#716,#715))
REPRESENTATION_CONTEXT('DSCH058-M025','TOP_LEVEL_ASSEMBLY_PART')
);
#714=UNCERTAINTY_MEASURE_WITH_UNIT(LENGTH_MEASURE(5.E-6),#717,
'DISTANCE_ACCURACY_VALUE','Maximum Tolerance applied to model');
#715=(
NAMED_UNIT(*)
SI_UNIT($,.STERADIAN.)
SOLID_ANGLE_UNIT()
);
#716=(
NAMED_UNIT(*)
PLANE_ANGLE_UNIT()
SI_UNIT($,.RADIAN.)
);
#717=(
LENGTH_UNIT()
NAMED_UNIT(*)
SI_UNIT($,.METRE.)
);
#718=PRODUCT_DEFINITION_SHAPE('','',#719);
#719=PRODUCT_DEFINITION('','',#721,#720);
#720=PRODUCT_DEFINITION_CONTEXT('',#727,'design');
#721=PRODUCT_DEFINITION_FORMATION_WITH_SPECIFIED_SOURCE('','',#723,
 .NOT_KNOWN.);
#722=PRODUCT_RELATED_PRODUCT_CATEGORY('','',(#723));
#723=PRODUCT('DSCH058-M025','DSCH058-M025','DSCH058-M025',(#725));
#724=PRODUCT_CATEGORY('','');
#725=PRODUCT_CONTEXT('',#727,'mechanical');
#726=APPLICATION_PROTOCOL_DEFINITION('international standard',
'ap242_managed_model_based_3d_engineering',2011,#727);
#727=APPLICATION_CONTEXT('managed model based 3d engineering');
ENDSEC;
END-ISO-10303-21;
