ISO-10303-21;
HEADER;
/* Generated by software containing ST-Developer
 * from STEP Tools, Inc. (www.steptools.com) 
 */
/* OPTION: using custom renumber hook */

FILE_DESCRIPTION(
/* description */ ('STEP AP242',
'CAx-IF Rec.Pracs.---Representation and Presentation of Product Manufa
cturing Information (PMI)---4.0---2014-10-13',
'CAx-IF Rec.Pracs.---3D Tessellated Geometry---0.4---2014-09-14','2;1'),

/* implementation_level */ '2;1');

FILE_NAME(
/* name */ '627ab76ae5e11672114a2b14',
/* time_stamp */ '2022-05-10T19:05:14+00:00',
/* author */ (''),
/* organization */ (''),
/* preprocessor_version */ 'ST-DEVELOPER v18.101',
/* originating_system */ '  ',
/* authorisation */ '  ');

FILE_SCHEMA (('AP242_MANAGED_MODEL_BASED_3D_ENGINEERING_MIM_LF { 1 0 10303 442 1 1 4 }'));
ENDSEC;

DATA;
#10=SHAPE_REPRESENTATION_RELATIONSHIP('','',#443,#11);
#11=ADVANCED_BREP_SHAPE_REPRESENTATION('',(#441),#713);
#12=PLANE('',#448);
#13=PLANE('',#449);
#14=PLANE('',#450);
#15=PLANE('',#451);
#16=PLANE('',#452);
#17=PLANE('',#453);
#18=PLANE('',#454);
#19=PLANE('',#458);
#20=PLANE('',#459);
#21=PLANE('',#460);
#22=PLANE('',#464);
#23=PLANE('',#465);
#24=PLANE('',#466);
#25=PLANE('',#470);
#26=PLANE('',#471);
#27=PLANE('',#472);
#28=PLANE('',#473);
#29=PLANE('',#474);
#30=LINE('',#594,#82);
#31=LINE('',#598,#83);
#32=LINE('',#600,#84);
#33=LINE('',#602,#85);
#34=LINE('',#604,#86);
#35=LINE('',#606,#87);
#36=LINE('',#608,#88);
#37=LINE('',#610,#89);
#38=LINE('',#612,#90);
#39=LINE('',#614,#91);
#40=LINE('',#616,#92);
#41=LINE('',#618,#93);
#42=LINE('',#620,#94);
#43=LINE('',#622,#95);
#44=LINE('',#624,#96);
#45=LINE('',#626,#97);
#46=LINE('',#628,#98);
#47=LINE('',#630,#99);
#48=LINE('',#632,#100);
#49=LINE('',#634,#101);
#50=LINE('',#636,#102);
#51=LINE('',#638,#103);
#52=LINE('',#640,#104);
#53=LINE('',#644,#105);
#54=LINE('',#648,#106);
#55=LINE('',#650,#107);
#56=LINE('',#652,#108);
#57=LINE('',#654,#109);
#58=LINE('',#656,#110);
#59=LINE('',#658,#111);
#60=LINE('',#660,#112);
#61=LINE('',#662,#113);
#62=LINE('',#664,#114);
#63=LINE('',#668,#115);
#64=LINE('',#672,#116);
#65=LINE('',#674,#117);
#66=LINE('',#676,#118);
#67=LINE('',#678,#119);
#68=LINE('',#680,#120);
#69=LINE('',#682,#121);
#70=LINE('',#684,#122);
#71=LINE('',#686,#123);
#72=LINE('',#688,#124);
#73=LINE('',#692,#125);
#74=LINE('',#696,#126);
#75=LINE('',#698,#127);
#76=LINE('',#700,#128);
#77=LINE('',#702,#129);
#78=LINE('',#704,#130);
#79=LINE('',#706,#131);
#80=LINE('',#708,#132);
#81=LINE('',#709,#133);
#82=VECTOR('',#481,1.);
#83=VECTOR('',#484,1.);
#84=VECTOR('',#487,1.);
#85=VECTOR('',#488,1.);
#86=VECTOR('',#489,1.);
#87=VECTOR('',#492,1.);
#88=VECTOR('',#493,1.);
#89=VECTOR('',#494,1.);
#90=VECTOR('',#497,1.);
#91=VECTOR('',#498,1.);
#92=VECTOR('',#499,1.);
#93=VECTOR('',#502,1.);
#94=VECTOR('',#503,1.);
#95=VECTOR('',#504,1.);
#96=VECTOR('',#507,1.);
#97=VECTOR('',#508,1.);
#98=VECTOR('',#509,1.);
#99=VECTOR('',#512,1.);
#100=VECTOR('',#513,1.);
#101=VECTOR('',#514,1.);
#102=VECTOR('',#517,1.);
#103=VECTOR('',#518,1.);
#104=VECTOR('',#519,1.);
#105=VECTOR('',#524,1.);
#106=VECTOR('',#529,1.);
#107=VECTOR('',#530,1.);
#108=VECTOR('',#531,1.);
#109=VECTOR('',#534,1.);
#110=VECTOR('',#535,1.);
#111=VECTOR('',#536,1.);
#112=VECTOR('',#539,1.);
#113=VECTOR('',#540,1.);
#114=VECTOR('',#541,1.);
#115=VECTOR('',#546,1.);
#116=VECTOR('',#551,1.);
#117=VECTOR('',#552,1.);
#118=VECTOR('',#553,1.);
#119=VECTOR('',#556,1.);
#120=VECTOR('',#557,1.);
#121=VECTOR('',#558,1.);
#122=VECTOR('',#561,1.);
#123=VECTOR('',#562,1.);
#124=VECTOR('',#563,1.);
#125=VECTOR('',#568,1.);
#126=VECTOR('',#573,1.);
#127=VECTOR('',#574,1.);
#128=VECTOR('',#575,1.);
#129=VECTOR('',#578,1.);
#130=VECTOR('',#579,1.);
#131=VECTOR('',#580,1.);
#132=VECTOR('',#583,1.);
#133=VECTOR('',#584,1.);
#134=ORIENTED_EDGE('',*,*,#254,.F.);
#135=ORIENTED_EDGE('',*,*,#255,.F.);
#136=ORIENTED_EDGE('',*,*,#256,.T.);
#137=ORIENTED_EDGE('',*,*,#257,.T.);
#138=ORIENTED_EDGE('',*,*,#258,.T.);
#139=ORIENTED_EDGE('',*,*,#259,.F.);
#140=ORIENTED_EDGE('',*,*,#260,.F.);
#141=ORIENTED_EDGE('',*,*,#255,.T.);
#142=ORIENTED_EDGE('',*,*,#261,.T.);
#143=ORIENTED_EDGE('',*,*,#262,.F.);
#144=ORIENTED_EDGE('',*,*,#263,.F.);
#145=ORIENTED_EDGE('',*,*,#259,.T.);
#146=ORIENTED_EDGE('',*,*,#264,.F.);
#147=ORIENTED_EDGE('',*,*,#265,.F.);
#148=ORIENTED_EDGE('',*,*,#266,.T.);
#149=ORIENTED_EDGE('',*,*,#262,.T.);
#150=ORIENTED_EDGE('',*,*,#267,.F.);
#151=ORIENTED_EDGE('',*,*,#268,.F.);
#152=ORIENTED_EDGE('',*,*,#269,.T.);
#153=ORIENTED_EDGE('',*,*,#265,.T.);
#154=ORIENTED_EDGE('',*,*,#270,.T.);
#155=ORIENTED_EDGE('',*,*,#271,.F.);
#156=ORIENTED_EDGE('',*,*,#272,.F.);
#157=ORIENTED_EDGE('',*,*,#268,.T.);
#158=ORIENTED_EDGE('',*,*,#273,.T.);
#159=ORIENTED_EDGE('',*,*,#274,.F.);
#160=ORIENTED_EDGE('',*,*,#275,.F.);
#161=ORIENTED_EDGE('',*,*,#271,.T.);
#162=ORIENTED_EDGE('',*,*,#276,.F.);
#163=ORIENTED_EDGE('',*,*,#277,.F.);
#164=ORIENTED_EDGE('',*,*,#278,.T.);
#165=ORIENTED_EDGE('',*,*,#274,.T.);
#166=ORIENTED_EDGE('',*,*,#279,.T.);
#167=ORIENTED_EDGE('',*,*,#280,.F.);
#168=ORIENTED_EDGE('',*,*,#281,.F.);
#169=ORIENTED_EDGE('',*,*,#277,.T.);
#170=ORIENTED_EDGE('',*,*,#282,.T.);
#171=ORIENTED_EDGE('',*,*,#283,.F.);
#172=ORIENTED_EDGE('',*,*,#284,.F.);
#173=ORIENTED_EDGE('',*,*,#280,.T.);
#174=ORIENTED_EDGE('',*,*,#285,.T.);
#175=ORIENTED_EDGE('',*,*,#286,.F.);
#176=ORIENTED_EDGE('',*,*,#287,.F.);
#177=ORIENTED_EDGE('',*,*,#283,.T.);
#178=ORIENTED_EDGE('',*,*,#288,.F.);
#179=ORIENTED_EDGE('',*,*,#289,.F.);
#180=ORIENTED_EDGE('',*,*,#290,.T.);
#181=ORIENTED_EDGE('',*,*,#286,.T.);
#182=ORIENTED_EDGE('',*,*,#291,.T.);
#183=ORIENTED_EDGE('',*,*,#292,.F.);
#184=ORIENTED_EDGE('',*,*,#293,.F.);
#185=ORIENTED_EDGE('',*,*,#289,.T.);
#186=ORIENTED_EDGE('',*,*,#294,.T.);
#187=ORIENTED_EDGE('',*,*,#295,.F.);
#188=ORIENTED_EDGE('',*,*,#296,.F.);
#189=ORIENTED_EDGE('',*,*,#292,.T.);
#190=ORIENTED_EDGE('',*,*,#297,.T.);
#191=ORIENTED_EDGE('',*,*,#298,.F.);
#192=ORIENTED_EDGE('',*,*,#299,.F.);
#193=ORIENTED_EDGE('',*,*,#295,.T.);
#194=ORIENTED_EDGE('',*,*,#300,.F.);
#195=ORIENTED_EDGE('',*,*,#301,.F.);
#196=ORIENTED_EDGE('',*,*,#302,.T.);
#197=ORIENTED_EDGE('',*,*,#298,.T.);
#198=ORIENTED_EDGE('',*,*,#303,.F.);
#199=ORIENTED_EDGE('',*,*,#304,.F.);
#200=ORIENTED_EDGE('',*,*,#305,.T.);
#201=ORIENTED_EDGE('',*,*,#301,.T.);
#202=ORIENTED_EDGE('',*,*,#306,.T.);
#203=ORIENTED_EDGE('',*,*,#307,.F.);
#204=ORIENTED_EDGE('',*,*,#308,.F.);
#205=ORIENTED_EDGE('',*,*,#304,.T.);
#206=ORIENTED_EDGE('',*,*,#309,.T.);
#207=ORIENTED_EDGE('',*,*,#310,.F.);
#208=ORIENTED_EDGE('',*,*,#311,.F.);
#209=ORIENTED_EDGE('',*,*,#307,.T.);
#210=ORIENTED_EDGE('',*,*,#312,.F.);
#211=ORIENTED_EDGE('',*,*,#257,.F.);
#212=ORIENTED_EDGE('',*,*,#313,.T.);
#213=ORIENTED_EDGE('',*,*,#310,.T.);
#214=ORIENTED_EDGE('',*,*,#256,.F.);
#215=ORIENTED_EDGE('',*,*,#260,.T.);
#216=ORIENTED_EDGE('',*,*,#263,.T.);
#217=ORIENTED_EDGE('',*,*,#266,.F.);
#218=ORIENTED_EDGE('',*,*,#269,.F.);
#219=ORIENTED_EDGE('',*,*,#272,.T.);
#220=ORIENTED_EDGE('',*,*,#275,.T.);
#221=ORIENTED_EDGE('',*,*,#278,.F.);
#222=ORIENTED_EDGE('',*,*,#281,.T.);
#223=ORIENTED_EDGE('',*,*,#284,.T.);
#224=ORIENTED_EDGE('',*,*,#287,.T.);
#225=ORIENTED_EDGE('',*,*,#290,.F.);
#226=ORIENTED_EDGE('',*,*,#293,.T.);
#227=ORIENTED_EDGE('',*,*,#296,.T.);
#228=ORIENTED_EDGE('',*,*,#299,.T.);
#229=ORIENTED_EDGE('',*,*,#302,.F.);
#230=ORIENTED_EDGE('',*,*,#305,.F.);
#231=ORIENTED_EDGE('',*,*,#308,.T.);
#232=ORIENTED_EDGE('',*,*,#311,.T.);
#233=ORIENTED_EDGE('',*,*,#313,.F.);
#234=ORIENTED_EDGE('',*,*,#254,.T.);
#235=ORIENTED_EDGE('',*,*,#312,.T.);
#236=ORIENTED_EDGE('',*,*,#309,.F.);
#237=ORIENTED_EDGE('',*,*,#306,.F.);
#238=ORIENTED_EDGE('',*,*,#303,.T.);
#239=ORIENTED_EDGE('',*,*,#300,.T.);
#240=ORIENTED_EDGE('',*,*,#297,.F.);
#241=ORIENTED_EDGE('',*,*,#294,.F.);
#242=ORIENTED_EDGE('',*,*,#291,.F.);
#243=ORIENTED_EDGE('',*,*,#288,.T.);
#244=ORIENTED_EDGE('',*,*,#285,.F.);
#245=ORIENTED_EDGE('',*,*,#282,.F.);
#246=ORIENTED_EDGE('',*,*,#279,.F.);
#247=ORIENTED_EDGE('',*,*,#276,.T.);
#248=ORIENTED_EDGE('',*,*,#273,.F.);
#249=ORIENTED_EDGE('',*,*,#270,.F.);
#250=ORIENTED_EDGE('',*,*,#267,.T.);
#251=ORIENTED_EDGE('',*,*,#264,.T.);
#252=ORIENTED_EDGE('',*,*,#261,.F.);
#253=ORIENTED_EDGE('',*,*,#258,.F.);
#254=EDGE_CURVE('',#314,#315,#354,.T.);
#255=EDGE_CURVE('',#316,#314,#30,.T.);
#256=EDGE_CURVE('',#316,#317,#355,.T.);
#257=EDGE_CURVE('',#317,#315,#31,.T.);
#258=EDGE_CURVE('',#314,#318,#32,.T.);
#259=EDGE_CURVE('',#319,#318,#33,.T.);
#260=EDGE_CURVE('',#316,#319,#34,.T.);
#261=EDGE_CURVE('',#318,#320,#35,.T.);
#262=EDGE_CURVE('',#321,#320,#36,.T.);
#263=EDGE_CURVE('',#319,#321,#37,.T.);
#264=EDGE_CURVE('',#322,#320,#38,.T.);
#265=EDGE_CURVE('',#323,#322,#39,.T.);
#266=EDGE_CURVE('',#323,#321,#40,.T.);
#267=EDGE_CURVE('',#324,#322,#41,.T.);
#268=EDGE_CURVE('',#325,#324,#42,.T.);
#269=EDGE_CURVE('',#325,#323,#43,.T.);
#270=EDGE_CURVE('',#324,#326,#44,.T.);
#271=EDGE_CURVE('',#327,#326,#45,.T.);
#272=EDGE_CURVE('',#325,#327,#46,.T.);
#273=EDGE_CURVE('',#326,#328,#47,.T.);
#274=EDGE_CURVE('',#329,#328,#48,.T.);
#275=EDGE_CURVE('',#327,#329,#49,.T.);
#276=EDGE_CURVE('',#330,#328,#50,.T.);
#277=EDGE_CURVE('',#331,#330,#51,.T.);
#278=EDGE_CURVE('',#331,#329,#52,.T.);
#279=EDGE_CURVE('',#330,#332,#356,.T.);
#280=EDGE_CURVE('',#333,#332,#53,.T.);
#281=EDGE_CURVE('',#331,#333,#357,.T.);
#282=EDGE_CURVE('',#332,#334,#54,.T.);
#283=EDGE_CURVE('',#335,#334,#55,.T.);
#284=EDGE_CURVE('',#333,#335,#56,.T.);
#285=EDGE_CURVE('',#334,#336,#57,.T.);
#286=EDGE_CURVE('',#337,#336,#58,.T.);
#287=EDGE_CURVE('',#335,#337,#59,.T.);
#288=EDGE_CURVE('',#338,#336,#60,.T.);
#289=EDGE_CURVE('',#339,#338,#61,.T.);
#290=EDGE_CURVE('',#339,#337,#62,.T.);
#291=EDGE_CURVE('',#338,#340,#358,.T.);
#292=EDGE_CURVE('',#341,#340,#63,.T.);
#293=EDGE_CURVE('',#339,#341,#359,.T.);
#294=EDGE_CURVE('',#340,#342,#64,.T.);
#295=EDGE_CURVE('',#343,#342,#65,.T.);
#296=EDGE_CURVE('',#341,#343,#66,.T.);
#297=EDGE_CURVE('',#342,#344,#67,.T.);
#298=EDGE_CURVE('',#345,#344,#68,.T.);
#299=EDGE_CURVE('',#343,#345,#69,.T.);
#300=EDGE_CURVE('',#346,#344,#70,.T.);
#301=EDGE_CURVE('',#347,#346,#71,.T.);
#302=EDGE_CURVE('',#347,#345,#72,.T.);
#303=EDGE_CURVE('',#348,#346,#360,.T.);
#304=EDGE_CURVE('',#349,#348,#73,.T.);
#305=EDGE_CURVE('',#349,#347,#361,.T.);
#306=EDGE_CURVE('',#348,#350,#74,.T.);
#307=EDGE_CURVE('',#351,#350,#75,.T.);
#308=EDGE_CURVE('',#349,#351,#76,.T.);
#309=EDGE_CURVE('',#350,#352,#77,.T.);
#310=EDGE_CURVE('',#353,#352,#78,.T.);
#311=EDGE_CURVE('',#351,#353,#79,.T.);
#312=EDGE_CURVE('',#315,#352,#80,.T.);
#313=EDGE_CURVE('',#317,#353,#81,.T.);
#314=VERTEX_POINT('',#592);
#315=VERTEX_POINT('',#593);
#316=VERTEX_POINT('',#595);
#317=VERTEX_POINT('',#597);
#318=VERTEX_POINT('',#601);
#319=VERTEX_POINT('',#603);
#320=VERTEX_POINT('',#607);
#321=VERTEX_POINT('',#609);
#322=VERTEX_POINT('',#613);
#323=VERTEX_POINT('',#615);
#324=VERTEX_POINT('',#619);
#325=VERTEX_POINT('',#621);
#326=VERTEX_POINT('',#625);
#327=VERTEX_POINT('',#627);
#328=VERTEX_POINT('',#631);
#329=VERTEX_POINT('',#633);
#330=VERTEX_POINT('',#637);
#331=VERTEX_POINT('',#639);
#332=VERTEX_POINT('',#643);
#333=VERTEX_POINT('',#645);
#334=VERTEX_POINT('',#649);
#335=VERTEX_POINT('',#651);
#336=VERTEX_POINT('',#655);
#337=VERTEX_POINT('',#657);
#338=VERTEX_POINT('',#661);
#339=VERTEX_POINT('',#663);
#340=VERTEX_POINT('',#667);
#341=VERTEX_POINT('',#669);
#342=VERTEX_POINT('',#673);
#343=VERTEX_POINT('',#675);
#344=VERTEX_POINT('',#679);
#345=VERTEX_POINT('',#681);
#346=VERTEX_POINT('',#685);
#347=VERTEX_POINT('',#687);
#348=VERTEX_POINT('',#691);
#349=VERTEX_POINT('',#693);
#350=VERTEX_POINT('',#697);
#351=VERTEX_POINT('',#699);
#352=VERTEX_POINT('',#703);
#353=VERTEX_POINT('',#705);
#354=CIRCLE('',#446,0.007112);
#355=CIRCLE('',#447,0.007112);
#356=CIRCLE('',#456,0.007112);
#357=CIRCLE('',#457,0.007112);
#358=CIRCLE('',#462,0.007112);
#359=CIRCLE('',#463,0.007112);
#360=CIRCLE('',#468,0.007112);
#361=CIRCLE('',#469,0.007112);
#362=EDGE_LOOP('',(#134,#135,#136,#137));
#363=EDGE_LOOP('',(#138,#139,#140,#141));
#364=EDGE_LOOP('',(#142,#143,#144,#145));
#365=EDGE_LOOP('',(#146,#147,#148,#149));
#366=EDGE_LOOP('',(#150,#151,#152,#153));
#367=EDGE_LOOP('',(#154,#155,#156,#157));
#368=EDGE_LOOP('',(#158,#159,#160,#161));
#369=EDGE_LOOP('',(#162,#163,#164,#165));
#370=EDGE_LOOP('',(#166,#167,#168,#169));
#371=EDGE_LOOP('',(#170,#171,#172,#173));
#372=EDGE_LOOP('',(#174,#175,#176,#177));
#373=EDGE_LOOP('',(#178,#179,#180,#181));
#374=EDGE_LOOP('',(#182,#183,#184,#185));
#375=EDGE_LOOP('',(#186,#187,#188,#189));
#376=EDGE_LOOP('',(#190,#191,#192,#193));
#377=EDGE_LOOP('',(#194,#195,#196,#197));
#378=EDGE_LOOP('',(#198,#199,#200,#201));
#379=EDGE_LOOP('',(#202,#203,#204,#205));
#380=EDGE_LOOP('',(#206,#207,#208,#209));
#381=EDGE_LOOP('',(#210,#211,#212,#213));
#382=EDGE_LOOP('',(#214,#215,#216,#217,#218,#219,#220,#221,#222,#223,#224,
#225,#226,#227,#228,#229,#230,#231,#232,#233));
#383=EDGE_LOOP('',(#234,#235,#236,#237,#238,#239,#240,#241,#242,#243,#244,
#245,#246,#247,#248,#249,#250,#251,#252,#253));
#384=FACE_BOUND('',#362,.T.);
#385=FACE_BOUND('',#363,.T.);
#386=FACE_BOUND('',#364,.T.);
#387=FACE_BOUND('',#365,.T.);
#388=FACE_BOUND('',#366,.T.);
#389=FACE_BOUND('',#367,.T.);
#390=FACE_BOUND('',#368,.T.);
#391=FACE_BOUND('',#369,.T.);
#392=FACE_BOUND('',#370,.T.);
#393=FACE_BOUND('',#371,.T.);
#394=FACE_BOUND('',#372,.T.);
#395=FACE_BOUND('',#373,.T.);
#396=FACE_BOUND('',#374,.T.);
#397=FACE_BOUND('',#375,.T.);
#398=FACE_BOUND('',#376,.T.);
#399=FACE_BOUND('',#377,.T.);
#400=FACE_BOUND('',#378,.T.);
#401=FACE_BOUND('',#379,.T.);
#402=FACE_BOUND('',#380,.T.);
#403=FACE_BOUND('',#381,.T.);
#404=FACE_BOUND('',#382,.T.);
#405=FACE_BOUND('',#383,.T.);
#406=CYLINDRICAL_SURFACE('',#445,0.007112);
#407=CYLINDRICAL_SURFACE('',#455,0.007112);
#408=CYLINDRICAL_SURFACE('',#461,0.007112);
#409=CYLINDRICAL_SURFACE('',#467,0.007112);
#410=ADVANCED_FACE('',(#384),#406,.F.);
#411=ADVANCED_FACE('',(#385),#12,.F.);
#412=ADVANCED_FACE('',(#386),#13,.F.);
#413=ADVANCED_FACE('',(#387),#14,.T.);
#414=ADVANCED_FACE('',(#388),#15,.T.);
#415=ADVANCED_FACE('',(#389),#16,.F.);
#416=ADVANCED_FACE('',(#390),#17,.F.);
#417=ADVANCED_FACE('',(#391),#18,.T.);
#418=ADVANCED_FACE('',(#392),#407,.F.);
#419=ADVANCED_FACE('',(#393),#19,.F.);
#420=ADVANCED_FACE('',(#394),#20,.F.);
#421=ADVANCED_FACE('',(#395),#21,.T.);
#422=ADVANCED_FACE('',(#396),#408,.F.);
#423=ADVANCED_FACE('',(#397),#22,.F.);
#424=ADVANCED_FACE('',(#398),#23,.F.);
#425=ADVANCED_FACE('',(#399),#24,.T.);
#426=ADVANCED_FACE('',(#400),#409,.F.);
#427=ADVANCED_FACE('',(#401),#25,.F.);
#428=ADVANCED_FACE('',(#402),#26,.F.);
#429=ADVANCED_FACE('',(#403),#27,.T.);
#430=ADVANCED_FACE('',(#404),#28,.T.);
#431=ADVANCED_FACE('',(#405),#29,.F.);
#432=CLOSED_SHELL('',(#410,#411,#412,#413,#414,#415,#416,#417,#418,#419,
#420,#421,#422,#423,#424,#425,#426,#427,#428,#429,#430,#431));
#433=STYLED_ITEM('',(#434),#441);
#434=PRESENTATION_STYLE_ASSIGNMENT((#435));
#435=SURFACE_STYLE_USAGE(.BOTH.,#436);
#436=SURFACE_SIDE_STYLE('',(#437));
#437=SURFACE_STYLE_FILL_AREA(#438);
#438=FILL_AREA_STYLE('',(#439));
#439=FILL_AREA_STYLE_COLOUR('',#440);
#440=COLOUR_RGB('',0.917647058823529,0.917647058823529,0.917647058823529);
#441=MANIFOLD_SOLID_BREP('DSCH061-E062',#432);
#442=SHAPE_DEFINITION_REPRESENTATION(#718,#443);
#443=SHAPE_REPRESENTATION('DSCH061-E062',(#444),#713);
#444=AXIS2_PLACEMENT_3D('',#589,#475,#476);
#445=AXIS2_PLACEMENT_3D('',#590,#477,#478);
#446=AXIS2_PLACEMENT_3D('',#591,#479,#480);
#447=AXIS2_PLACEMENT_3D('',#596,#482,#483);
#448=AXIS2_PLACEMENT_3D('',#599,#485,#486);
#449=AXIS2_PLACEMENT_3D('',#605,#490,#491);
#450=AXIS2_PLACEMENT_3D('',#611,#495,#496);
#451=AXIS2_PLACEMENT_3D('',#617,#500,#501);
#452=AXIS2_PLACEMENT_3D('',#623,#505,#506);
#453=AXIS2_PLACEMENT_3D('',#629,#510,#511);
#454=AXIS2_PLACEMENT_3D('',#635,#515,#516);
#455=AXIS2_PLACEMENT_3D('',#641,#520,#521);
#456=AXIS2_PLACEMENT_3D('',#642,#522,#523);
#457=AXIS2_PLACEMENT_3D('',#646,#525,#526);
#458=AXIS2_PLACEMENT_3D('',#647,#527,#528);
#459=AXIS2_PLACEMENT_3D('',#653,#532,#533);
#460=AXIS2_PLACEMENT_3D('',#659,#537,#538);
#461=AXIS2_PLACEMENT_3D('',#665,#542,#543);
#462=AXIS2_PLACEMENT_3D('',#666,#544,#545);
#463=AXIS2_PLACEMENT_3D('',#670,#547,#548);
#464=AXIS2_PLACEMENT_3D('',#671,#549,#550);
#465=AXIS2_PLACEMENT_3D('',#677,#554,#555);
#466=AXIS2_PLACEMENT_3D('',#683,#559,#560);
#467=AXIS2_PLACEMENT_3D('',#689,#564,#565);
#468=AXIS2_PLACEMENT_3D('',#690,#566,#567);
#469=AXIS2_PLACEMENT_3D('',#694,#569,#570);
#470=AXIS2_PLACEMENT_3D('',#695,#571,#572);
#471=AXIS2_PLACEMENT_3D('',#701,#576,#577);
#472=AXIS2_PLACEMENT_3D('',#707,#581,#582);
#473=AXIS2_PLACEMENT_3D('',#710,#585,#586);
#474=AXIS2_PLACEMENT_3D('',#711,#587,#588);
#475=DIRECTION('',(0.,0.,1.));
#476=DIRECTION('',(1.,0.,0.));
#477=DIRECTION('',(0.,0.,-1.));
#478=DIRECTION('',(-1.,0.,0.));
#479=DIRECTION('',(0.,0.,1.));
#480=DIRECTION('',(1.,0.,0.));
#481=DIRECTION('',(0.,0.,-1.));
#482=DIRECTION('',(0.,0.,1.));
#483=DIRECTION('',(1.,0.,0.));
#484=DIRECTION('',(0.,0.,-1.));
#485=DIRECTION('',(-1.,0.,0.));
#486=DIRECTION('',(0.,0.,1.));
#487=DIRECTION('',(0.,1.,0.));
#488=DIRECTION('',(0.,0.,-1.));
#489=DIRECTION('',(0.,1.,0.));
#490=DIRECTION('',(3.10437272007303E-16,-1.,0.));
#491=DIRECTION('',(1.,3.10437272007303E-16,0.));
#492=DIRECTION('',(-1.,-3.10437272007303E-16,0.));
#493=DIRECTION('',(0.,0.,-1.));
#494=DIRECTION('',(-1.,-3.10437272007303E-16,0.));
#495=DIRECTION('',(-1.,0.,0.));
#496=DIRECTION('',(0.,0.,1.));
#497=DIRECTION('',(0.,1.,0.));
#498=DIRECTION('',(0.,0.,-1.));
#499=DIRECTION('',(0.,1.,0.));
#500=DIRECTION('',(1.19518349722811E-16,-1.,0.));
#501=DIRECTION('',(1.,1.19518349722811E-16,0.));
#502=DIRECTION('',(-1.,-1.19518349722811E-16,0.));
#503=DIRECTION('',(0.,0.,-1.));
#504=DIRECTION('',(-1.,-1.19518349722811E-16,0.));
#505=DIRECTION('',(-1.,0.,0.));
#506=DIRECTION('',(0.,0.,1.));
#507=DIRECTION('',(0.,1.,0.));
#508=DIRECTION('',(0.,0.,-1.));
#509=DIRECTION('',(0.,1.,0.));
#510=DIRECTION('',(3.10437272007303E-16,-1.,0.));
#511=DIRECTION('',(1.,3.10437272007303E-16,0.));
#512=DIRECTION('',(-1.,-3.10437272007303E-16,0.));
#513=DIRECTION('',(0.,0.,-1.));
#514=DIRECTION('',(-1.,-3.10437272007303E-16,0.));
#515=DIRECTION('',(-1.,0.,0.));
#516=DIRECTION('',(0.,0.,1.));
#517=DIRECTION('',(0.,1.,0.));
#518=DIRECTION('',(0.,0.,-1.));
#519=DIRECTION('',(0.,1.,0.));
#520=DIRECTION('',(0.,0.,-1.));
#521=DIRECTION('',(-1.,0.,0.));
#522=DIRECTION('',(0.,0.,-1.));
#523=DIRECTION('',(1.,0.,0.));
#524=DIRECTION('',(0.,0.,-1.));
#525=DIRECTION('',(0.,0.,-1.));
#526=DIRECTION('',(1.,0.,0.));
#527=DIRECTION('',(-1.,0.,0.));
#528=DIRECTION('',(0.,0.,1.));
#529=DIRECTION('',(0.,1.,0.));
#530=DIRECTION('',(0.,0.,-1.));
#531=DIRECTION('',(0.,1.,0.));
#532=DIRECTION('',(1.55218636003651E-16,-1.,0.));
#533=DIRECTION('',(1.,1.55218636003651E-16,0.));
#534=DIRECTION('',(-1.,-1.55218636003651E-16,0.));
#535=DIRECTION('',(0.,0.,-1.));
#536=DIRECTION('',(-1.,-1.55218636003651E-16,0.));
#537=DIRECTION('',(-1.,0.,0.));
#538=DIRECTION('',(0.,0.,1.));
#539=DIRECTION('',(0.,1.,0.));
#540=DIRECTION('',(0.,0.,-1.));
#541=DIRECTION('',(0.,1.,0.));
#542=DIRECTION('',(0.,0.,-1.));
#543=DIRECTION('',(-1.,0.,0.));
#544=DIRECTION('',(0.,0.,-1.));
#545=DIRECTION('',(1.,0.,0.));
#546=DIRECTION('',(0.,0.,-1.));
#547=DIRECTION('',(0.,0.,-1.));
#548=DIRECTION('',(1.,0.,0.));
#549=DIRECTION('',(-1.,0.,0.));
#550=DIRECTION('',(0.,0.,1.));
#551=DIRECTION('',(0.,1.,0.));
#552=DIRECTION('',(0.,0.,-1.));
#553=DIRECTION('',(0.,1.,0.));
#554=DIRECTION('',(0.,-1.,0.));
#555=DIRECTION('',(0.,0.,-1.));
#556=DIRECTION('',(-1.,0.,0.));
#557=DIRECTION('',(0.,0.,-1.));
#558=DIRECTION('',(-1.,0.,0.));
#559=DIRECTION('',(-1.,0.,0.));
#560=DIRECTION('',(0.,0.,1.));
#561=DIRECTION('',(0.,1.,0.));
#562=DIRECTION('',(0.,0.,-1.));
#563=DIRECTION('',(0.,1.,0.));
#564=DIRECTION('',(0.,0.,-1.));
#565=DIRECTION('',(-1.,0.,0.));
#566=DIRECTION('',(0.,0.,1.));
#567=DIRECTION('',(1.,0.,0.));
#568=DIRECTION('',(0.,0.,-1.));
#569=DIRECTION('',(0.,0.,1.));
#570=DIRECTION('',(1.,0.,0.));
#571=DIRECTION('',(-1.,0.,0.));
#572=DIRECTION('',(0.,0.,1.));
#573=DIRECTION('',(0.,1.,0.));
#574=DIRECTION('',(0.,0.,-1.));
#575=DIRECTION('',(0.,1.,0.));
#576=DIRECTION('',(1.55218636003651E-16,-1.,0.));
#577=DIRECTION('',(1.,1.55218636003651E-16,0.));
#578=DIRECTION('',(-1.,-1.55218636003651E-16,0.));
#579=DIRECTION('',(0.,0.,-1.));
#580=DIRECTION('',(-1.,-1.55218636003651E-16,0.));
#581=DIRECTION('',(-1.,0.,0.));
#582=DIRECTION('',(0.,0.,1.));
#583=DIRECTION('',(0.,1.,0.));
#584=DIRECTION('',(0.,1.,0.));
#585=DIRECTION('',(0.,0.,1.));
#586=DIRECTION('',(1.,0.,0.));
#587=DIRECTION('',(0.,0.,1.));
#588=DIRECTION('',(1.,0.,0.));
#589=CARTESIAN_POINT('',(0.,0.,0.));
#590=CARTESIAN_POINT('',(-0.0381,-4.35484401776799E-19,0.0015748));
#591=CARTESIAN_POINT('',(-0.0381,-4.35484401776799E-19,0.));
#592=CARTESIAN_POINT('',(-0.045212,8.70968803553598E-19,0.));
#593=CARTESIAN_POINT('',(-0.030988,0.,0.));
#594=CARTESIAN_POINT('',(-0.045212,8.70968803553598E-19,0.0015748));
#595=CARTESIAN_POINT('',(-0.045212,8.70968803553598E-19,0.0015748));
#596=CARTESIAN_POINT('',(-0.0381,-4.35484401776799E-19,0.0015748));
#597=CARTESIAN_POINT('',(-0.030988,0.,0.0015748));
#598=CARTESIAN_POINT('',(-0.030988,0.,0.0015748));
#599=CARTESIAN_POINT('',(-0.045212,0.00635,0.0015748));
#600=CARTESIAN_POINT('',(-0.045212,0.00635,0.));
#601=CARTESIAN_POINT('',(-0.045212,0.0127,0.));
#602=CARTESIAN_POINT('',(-0.045212,0.0127,0.0015748));
#603=CARTESIAN_POINT('',(-0.045212,0.0127,0.0015748));
#604=CARTESIAN_POINT('',(-0.045212,0.00635,0.0015748));
#605=CARTESIAN_POINT('',(-0.048006,0.0127,0.0015748));
#606=CARTESIAN_POINT('',(-0.048006,0.0127,0.));
#607=CARTESIAN_POINT('',(-0.0508,0.0127,0.));
#608=CARTESIAN_POINT('',(-0.0508,0.0127,0.0015748));
#609=CARTESIAN_POINT('',(-0.0508,0.0127,0.0015748));
#610=CARTESIAN_POINT('',(-0.048006,0.0127,0.0015748));
#611=CARTESIAN_POINT('',(-0.0508,-8.67361737988404E-18,0.0015748));
#612=CARTESIAN_POINT('',(-0.0508,-8.67361737988404E-18,0.));
#613=CARTESIAN_POINT('',(-0.0508,-0.0127,0.));
#614=CARTESIAN_POINT('',(-0.0508,-0.0127,0.0015748));
#615=CARTESIAN_POINT('',(-0.0508,-0.0127,0.0015748));
#616=CARTESIAN_POINT('',(-0.0508,-8.67361737988404E-18,0.0015748));
#617=CARTESIAN_POINT('',(-3.46944695195361E-18,-0.0127,0.0015748));
#618=CARTESIAN_POINT('',(-3.46944695195361E-18,-0.0127,0.));
#619=CARTESIAN_POINT('',(0.0508,-0.0127,0.));
#620=CARTESIAN_POINT('',(0.0508,-0.0127,0.0015748));
#621=CARTESIAN_POINT('',(0.0508,-0.0127,0.0015748));
#622=CARTESIAN_POINT('',(-3.46944695195361E-18,-0.0127,0.0015748));
#623=CARTESIAN_POINT('',(0.0508,5.20417042793042E-18,0.0015748));
#624=CARTESIAN_POINT('',(0.0508,5.20417042793042E-18,0.));
#625=CARTESIAN_POINT('',(0.0508,0.0127,0.));
#626=CARTESIAN_POINT('',(0.0508,0.0127,0.0015748));
#627=CARTESIAN_POINT('',(0.0508,0.0127,0.0015748));
#628=CARTESIAN_POINT('',(0.0508,5.20417042793042E-18,0.0015748));
#629=CARTESIAN_POINT('',(0.048006,0.0127,0.0015748));
#630=CARTESIAN_POINT('',(0.048006,0.0127,0.));
#631=CARTESIAN_POINT('',(0.045212,0.0127,0.));
#632=CARTESIAN_POINT('',(0.045212,0.0127,0.0015748));
#633=CARTESIAN_POINT('',(0.045212,0.0127,0.0015748));
#634=CARTESIAN_POINT('',(0.048006,0.0127,0.0015748));
#635=CARTESIAN_POINT('',(0.045212,0.00635,0.0015748));
#636=CARTESIAN_POINT('',(0.045212,0.00635,0.));
#637=CARTESIAN_POINT('',(0.045212,8.70968803553598E-19,0.));
#638=CARTESIAN_POINT('',(0.045212,8.70968803553598E-19,0.0015748));
#639=CARTESIAN_POINT('',(0.045212,8.70968803553598E-19,0.0015748));
#640=CARTESIAN_POINT('',(0.045212,0.00635,0.0015748));
#641=CARTESIAN_POINT('',(0.0381,-4.35484401776799E-19,0.0015748));
#642=CARTESIAN_POINT('',(0.0381,-4.35484401776799E-19,0.));
#643=CARTESIAN_POINT('',(0.030988,0.,0.));
#644=CARTESIAN_POINT('',(0.030988,0.,0.0015748));
#645=CARTESIAN_POINT('',(0.030988,0.,0.0015748));
#646=CARTESIAN_POINT('',(0.0381,-4.35484401776799E-19,0.0015748));
#647=CARTESIAN_POINT('',(0.030988,0.00635,0.0015748));
#648=CARTESIAN_POINT('',(0.030988,0.00635,0.));
#649=CARTESIAN_POINT('',(0.030988,0.0127,0.));
#650=CARTESIAN_POINT('',(0.030988,0.0127,0.0015748));
#651=CARTESIAN_POINT('',(0.030988,0.0127,0.0015748));
#652=CARTESIAN_POINT('',(0.030988,0.00635,0.0015748));
#653=CARTESIAN_POINT('',(0.0254,0.0127,0.0015748));
#654=CARTESIAN_POINT('',(0.0254,0.0127,0.));
#655=CARTESIAN_POINT('',(0.019812,0.0127,0.));
#656=CARTESIAN_POINT('',(0.019812,0.0127,0.0015748));
#657=CARTESIAN_POINT('',(0.019812,0.0127,0.0015748));
#658=CARTESIAN_POINT('',(0.0254,0.0127,0.0015748));
#659=CARTESIAN_POINT('',(0.019812,0.00635,0.0015748));
#660=CARTESIAN_POINT('',(0.019812,0.00635,0.));
#661=CARTESIAN_POINT('',(0.019812,0.,0.));
#662=CARTESIAN_POINT('',(0.019812,0.,0.0015748));
#663=CARTESIAN_POINT('',(0.019812,0.,0.0015748));
#664=CARTESIAN_POINT('',(0.019812,0.00635,0.0015748));
#665=CARTESIAN_POINT('',(0.0127,-4.35484401776799E-19,0.0015748));
#666=CARTESIAN_POINT('',(0.0127,-4.35484401776799E-19,0.));
#667=CARTESIAN_POINT('',(0.005588,-1.7419376071072E-18,0.));
#668=CARTESIAN_POINT('',(0.005588,-1.7419376071072E-18,0.0015748));
#669=CARTESIAN_POINT('',(0.005588,-1.7419376071072E-18,0.0015748));
#670=CARTESIAN_POINT('',(0.0127,-4.35484401776799E-19,0.0015748));
#671=CARTESIAN_POINT('',(0.005588,0.00635,0.0015748));
#672=CARTESIAN_POINT('',(0.005588,0.00635,0.));
#673=CARTESIAN_POINT('',(0.005588,0.0127,0.));
#674=CARTESIAN_POINT('',(0.005588,0.0127,0.0015748));
#675=CARTESIAN_POINT('',(0.005588,0.0127,0.0015748));
#676=CARTESIAN_POINT('',(0.005588,0.00635,0.0015748));
#677=CARTESIAN_POINT('',(-1.7347234759768E-18,0.0127,0.0015748));
#678=CARTESIAN_POINT('',(-1.7347234759768E-18,0.0127,0.));
#679=CARTESIAN_POINT('',(-0.005588,0.0127,0.));
#680=CARTESIAN_POINT('',(-0.005588,0.0127,0.0015748));
#681=CARTESIAN_POINT('',(-0.005588,0.0127,0.0015748));
#682=CARTESIAN_POINT('',(-1.7347234759768E-18,0.0127,0.0015748));
#683=CARTESIAN_POINT('',(-0.005588,0.00635,0.0015748));
#684=CARTESIAN_POINT('',(-0.005588,0.00635,0.));
#685=CARTESIAN_POINT('',(-0.005588,0.,0.));
#686=CARTESIAN_POINT('',(-0.005588,0.,0.0015748));
#687=CARTESIAN_POINT('',(-0.005588,0.,0.0015748));
#688=CARTESIAN_POINT('',(-0.005588,0.00635,0.0015748));
#689=CARTESIAN_POINT('',(-0.0127,-4.35484401776799E-19,0.0015748));
#690=CARTESIAN_POINT('',(-0.0127,-4.35484401776799E-19,0.));
#691=CARTESIAN_POINT('',(-0.019812,8.70968803553597E-19,0.));
#692=CARTESIAN_POINT('',(-0.019812,8.70968803553597E-19,0.0015748));
#693=CARTESIAN_POINT('',(-0.019812,8.70968803553597E-19,0.0015748));
#694=CARTESIAN_POINT('',(-0.0127,-4.35484401776799E-19,0.0015748));
#695=CARTESIAN_POINT('',(-0.019812,0.00635,0.0015748));
#696=CARTESIAN_POINT('',(-0.019812,0.00635,0.));
#697=CARTESIAN_POINT('',(-0.019812,0.0127,0.));
#698=CARTESIAN_POINT('',(-0.019812,0.0127,0.0015748));
#699=CARTESIAN_POINT('',(-0.019812,0.0127,0.0015748));
#700=CARTESIAN_POINT('',(-0.019812,0.00635,0.0015748));
#701=CARTESIAN_POINT('',(-0.0254,0.0127,0.0015748));
#702=CARTESIAN_POINT('',(-0.0254,0.0127,0.));
#703=CARTESIAN_POINT('',(-0.030988,0.0127,0.));
#704=CARTESIAN_POINT('',(-0.030988,0.0127,0.0015748));
#705=CARTESIAN_POINT('',(-0.030988,0.0127,0.0015748));
#706=CARTESIAN_POINT('',(-0.0254,0.0127,0.0015748));
#707=CARTESIAN_POINT('',(-0.030988,0.00635,0.0015748));
#708=CARTESIAN_POINT('',(-0.030988,0.00635,0.));
#709=CARTESIAN_POINT('',(-0.030988,0.00635,0.0015748));
#710=CARTESIAN_POINT('',(0.,0.,0.0015748));
#711=CARTESIAN_POINT('',(0.,0.,0.));
#712=MECHANICAL_DESIGN_GEOMETRIC_PRESENTATION_REPRESENTATION('',(#433),
#713);
#713=(
GEOMETRIC_REPRESENTATION_CONTEXT(3)
GLOBAL_UNCERTAINTY_ASSIGNED_CONTEXT((#714))
GLOBAL_UNIT_ASSIGNED_CONTEXT((#717,#716,#715))
REPRESENTATION_CONTEXT('DSCH061-E062','TOP_LEVEL_ASSEMBLY_PART')
);
#714=UNCERTAINTY_MEASURE_WITH_UNIT(LENGTH_MEASURE(5.E-6),#717,
'DISTANCE_ACCURACY_VALUE','Maximum Tolerance applied to model');
#715=(
NAMED_UNIT(*)
SI_UNIT($,.STERADIAN.)
SOLID_ANGLE_UNIT()
);
#716=(
NAMED_UNIT(*)
PLANE_ANGLE_UNIT()
SI_UNIT($,.RADIAN.)
);
#717=(
LENGTH_UNIT()
NAMED_UNIT(*)
SI_UNIT($,.METRE.)
);
#718=PRODUCT_DEFINITION_SHAPE('','',#719);
#719=PRODUCT_DEFINITION('','',#721,#720);
#720=PRODUCT_DEFINITION_CONTEXT('',#727,'design');
#721=PRODUCT_DEFINITION_FORMATION_WITH_SPECIFIED_SOURCE('','',#723,
 .NOT_KNOWN.);
#722=PRODUCT_RELATED_PRODUCT_CATEGORY('','',(#723));
#723=PRODUCT('DSCH061-E062','DSCH061-E062','DSCH061-E062',(#725));
#724=PRODUCT_CATEGORY('','');
#725=PRODUCT_CONTEXT('',#727,'mechanical');
#726=APPLICATION_PROTOCOL_DEFINITION('international standard',
'ap242_managed_model_based_3d_engineering',2011,#727);
#727=APPLICATION_CONTEXT('managed model based 3d engineering');
ENDSEC;
END-ISO-10303-21;
