ISO-10303-21;
HEADER;
/* Generated by software containing ST-Developer
 * from STEP Tools, Inc. (www.steptools.com) 
 */
/* OPTION: using custom renumber hook */

FILE_DESCRIPTION(
/* description */ ('STEP AP242',
'CAx-IF Rec.Pracs.---Representation and Presentation of Product Manufa
cturing Information (PMI)---4.0---2014-10-13',
'CAx-IF Rec.Pracs.---3D Tessellated Geometry---0.4---2014-09-14','2;1'),

/* implementation_level */ '2;1');

FILE_NAME(
/* name */ '627ba2907444cf2b3aac6838',
/* time_stamp */ '2022-05-11T11:48:32+00:00',
/* author */ (''),
/* organization */ (''),
/* preprocessor_version */ 'ST-DEVELOPER v18.101',
/* originating_system */ '  ',
/* authorisation */ '  ');

FILE_SCHEMA (('AP242_MANAGED_MODEL_BASED_3D_ENGINEERING_MIM_LF { 1 0 10303 442 1 1 4 }'));
ENDSEC;

DATA;
#10=SHAPE_REPRESENTATION_RELATIONSHIP('','',#391,#11);
#11=ADVANCED_BREP_SHAPE_REPRESENTATION('',(#389),#657);
#12=CIRCLE('',#395,0.002794);
#13=CIRCLE('',#396,0.002794);
#14=CIRCLE('',#399,0.002794);
#15=CIRCLE('',#400,0.002794);
#16=CIRCLE('',#403,0.002794);
#17=CIRCLE('',#404,0.002794);
#18=CIRCLE('',#407,0.007112);
#19=CIRCLE('',#408,0.007112);
#20=CIRCLE('',#411,0.005588);
#21=CIRCLE('',#412,0.005588);
#22=CIRCLE('',#415,0.007112);
#23=CIRCLE('',#416,0.007112);
#24=CIRCLE('',#419,0.005588);
#25=CIRCLE('',#420,0.005588);
#26=CIRCLE('',#423,0.007112);
#27=CIRCLE('',#424,0.007112);
#28=CIRCLE('',#427,0.002794);
#29=CIRCLE('',#428,0.002794);
#30=CYLINDRICAL_SURFACE('',#394,0.002794);
#31=CYLINDRICAL_SURFACE('',#398,0.002794);
#32=CYLINDRICAL_SURFACE('',#402,0.002794);
#33=CYLINDRICAL_SURFACE('',#406,0.007112);
#34=CYLINDRICAL_SURFACE('',#410,0.005588);
#35=CYLINDRICAL_SURFACE('',#414,0.007112);
#36=CYLINDRICAL_SURFACE('',#418,0.005588);
#37=CYLINDRICAL_SURFACE('',#422,0.007112);
#38=CYLINDRICAL_SURFACE('',#426,0.002794);
#39=ORIENTED_EDGE('',*,*,#147,.F.);
#40=ORIENTED_EDGE('',*,*,#148,.F.);
#41=ORIENTED_EDGE('',*,*,#149,.T.);
#42=ORIENTED_EDGE('',*,*,#150,.T.);
#43=ORIENTED_EDGE('',*,*,#151,.T.);
#44=ORIENTED_EDGE('',*,*,#152,.F.);
#45=ORIENTED_EDGE('',*,*,#153,.F.);
#46=ORIENTED_EDGE('',*,*,#148,.T.);
#47=ORIENTED_EDGE('',*,*,#154,.F.);
#48=ORIENTED_EDGE('',*,*,#155,.F.);
#49=ORIENTED_EDGE('',*,*,#156,.T.);
#50=ORIENTED_EDGE('',*,*,#152,.T.);
#51=ORIENTED_EDGE('',*,*,#157,.T.);
#52=ORIENTED_EDGE('',*,*,#158,.F.);
#53=ORIENTED_EDGE('',*,*,#159,.F.);
#54=ORIENTED_EDGE('',*,*,#155,.T.);
#55=ORIENTED_EDGE('',*,*,#160,.T.);
#56=ORIENTED_EDGE('',*,*,#161,.F.);
#57=ORIENTED_EDGE('',*,*,#162,.F.);
#58=ORIENTED_EDGE('',*,*,#158,.T.);
#59=ORIENTED_EDGE('',*,*,#163,.T.);
#60=ORIENTED_EDGE('',*,*,#164,.F.);
#61=ORIENTED_EDGE('',*,*,#165,.F.);
#62=ORIENTED_EDGE('',*,*,#161,.T.);
#63=ORIENTED_EDGE('',*,*,#166,.F.);
#64=ORIENTED_EDGE('',*,*,#167,.F.);
#65=ORIENTED_EDGE('',*,*,#168,.T.);
#66=ORIENTED_EDGE('',*,*,#164,.T.);
#67=ORIENTED_EDGE('',*,*,#169,.T.);
#68=ORIENTED_EDGE('',*,*,#170,.F.);
#69=ORIENTED_EDGE('',*,*,#171,.F.);
#70=ORIENTED_EDGE('',*,*,#167,.T.);
#71=ORIENTED_EDGE('',*,*,#172,.T.);
#72=ORIENTED_EDGE('',*,*,#173,.F.);
#73=ORIENTED_EDGE('',*,*,#174,.F.);
#74=ORIENTED_EDGE('',*,*,#170,.T.);
#75=ORIENTED_EDGE('',*,*,#175,.T.);
#76=ORIENTED_EDGE('',*,*,#176,.F.);
#77=ORIENTED_EDGE('',*,*,#177,.F.);
#78=ORIENTED_EDGE('',*,*,#173,.T.);
#79=ORIENTED_EDGE('',*,*,#178,.F.);
#80=ORIENTED_EDGE('',*,*,#179,.F.);
#81=ORIENTED_EDGE('',*,*,#180,.T.);
#82=ORIENTED_EDGE('',*,*,#176,.T.);
#83=ORIENTED_EDGE('',*,*,#181,.F.);
#84=ORIENTED_EDGE('',*,*,#182,.F.);
#85=ORIENTED_EDGE('',*,*,#183,.T.);
#86=ORIENTED_EDGE('',*,*,#179,.T.);
#87=ORIENTED_EDGE('',*,*,#184,.T.);
#88=ORIENTED_EDGE('',*,*,#185,.F.);
#89=ORIENTED_EDGE('',*,*,#186,.F.);
#90=ORIENTED_EDGE('',*,*,#182,.T.);
#91=ORIENTED_EDGE('',*,*,#187,.T.);
#92=ORIENTED_EDGE('',*,*,#188,.F.);
#93=ORIENTED_EDGE('',*,*,#189,.F.);
#94=ORIENTED_EDGE('',*,*,#185,.T.);
#95=ORIENTED_EDGE('',*,*,#190,.F.);
#96=ORIENTED_EDGE('',*,*,#191,.F.);
#97=ORIENTED_EDGE('',*,*,#192,.T.);
#98=ORIENTED_EDGE('',*,*,#188,.T.);
#99=ORIENTED_EDGE('',*,*,#193,.F.);
#100=ORIENTED_EDGE('',*,*,#194,.F.);
#101=ORIENTED_EDGE('',*,*,#195,.T.);
#102=ORIENTED_EDGE('',*,*,#191,.T.);
#103=ORIENTED_EDGE('',*,*,#196,.T.);
#104=ORIENTED_EDGE('',*,*,#197,.F.);
#105=ORIENTED_EDGE('',*,*,#198,.F.);
#106=ORIENTED_EDGE('',*,*,#194,.T.);
#107=ORIENTED_EDGE('',*,*,#199,.T.);
#108=ORIENTED_EDGE('',*,*,#150,.F.);
#109=ORIENTED_EDGE('',*,*,#200,.F.);
#110=ORIENTED_EDGE('',*,*,#197,.T.);
#111=ORIENTED_EDGE('',*,*,#149,.F.);
#112=ORIENTED_EDGE('',*,*,#153,.T.);
#113=ORIENTED_EDGE('',*,*,#156,.F.);
#114=ORIENTED_EDGE('',*,*,#159,.T.);
#115=ORIENTED_EDGE('',*,*,#162,.T.);
#116=ORIENTED_EDGE('',*,*,#165,.T.);
#117=ORIENTED_EDGE('',*,*,#168,.F.);
#118=ORIENTED_EDGE('',*,*,#171,.T.);
#119=ORIENTED_EDGE('',*,*,#174,.T.);
#120=ORIENTED_EDGE('',*,*,#177,.T.);
#121=ORIENTED_EDGE('',*,*,#180,.F.);
#122=ORIENTED_EDGE('',*,*,#183,.F.);
#123=ORIENTED_EDGE('',*,*,#186,.T.);
#124=ORIENTED_EDGE('',*,*,#189,.T.);
#125=ORIENTED_EDGE('',*,*,#192,.F.);
#126=ORIENTED_EDGE('',*,*,#195,.F.);
#127=ORIENTED_EDGE('',*,*,#198,.T.);
#128=ORIENTED_EDGE('',*,*,#200,.T.);
#129=ORIENTED_EDGE('',*,*,#147,.T.);
#130=ORIENTED_EDGE('',*,*,#199,.F.);
#131=ORIENTED_EDGE('',*,*,#196,.F.);
#132=ORIENTED_EDGE('',*,*,#193,.T.);
#133=ORIENTED_EDGE('',*,*,#190,.T.);
#134=ORIENTED_EDGE('',*,*,#187,.F.);
#135=ORIENTED_EDGE('',*,*,#184,.F.);
#136=ORIENTED_EDGE('',*,*,#181,.T.);
#137=ORIENTED_EDGE('',*,*,#178,.T.);
#138=ORIENTED_EDGE('',*,*,#175,.F.);
#139=ORIENTED_EDGE('',*,*,#172,.F.);
#140=ORIENTED_EDGE('',*,*,#169,.F.);
#141=ORIENTED_EDGE('',*,*,#166,.T.);
#142=ORIENTED_EDGE('',*,*,#163,.F.);
#143=ORIENTED_EDGE('',*,*,#160,.F.);
#144=ORIENTED_EDGE('',*,*,#157,.F.);
#145=ORIENTED_EDGE('',*,*,#154,.T.);
#146=ORIENTED_EDGE('',*,*,#151,.F.);
#147=EDGE_CURVE('',#201,#202,#237,.T.);
#148=EDGE_CURVE('',#203,#201,#238,.T.);
#149=EDGE_CURVE('',#203,#204,#239,.T.);
#150=EDGE_CURVE('',#204,#202,#240,.T.);
#151=EDGE_CURVE('',#201,#205,#12,.T.);
#152=EDGE_CURVE('',#206,#205,#241,.T.);
#153=EDGE_CURVE('',#203,#206,#13,.T.);
#154=EDGE_CURVE('',#207,#205,#242,.T.);
#155=EDGE_CURVE('',#208,#207,#243,.T.);
#156=EDGE_CURVE('',#208,#206,#244,.T.);
#157=EDGE_CURVE('',#207,#209,#14,.T.);
#158=EDGE_CURVE('',#210,#209,#245,.T.);
#159=EDGE_CURVE('',#208,#210,#15,.T.);
#160=EDGE_CURVE('',#209,#211,#246,.T.);
#161=EDGE_CURVE('',#212,#211,#247,.T.);
#162=EDGE_CURVE('',#210,#212,#248,.T.);
#163=EDGE_CURVE('',#211,#213,#16,.T.);
#164=EDGE_CURVE('',#214,#213,#249,.T.);
#165=EDGE_CURVE('',#212,#214,#17,.T.);
#166=EDGE_CURVE('',#215,#213,#250,.T.);
#167=EDGE_CURVE('',#216,#215,#251,.T.);
#168=EDGE_CURVE('',#216,#214,#252,.T.);
#169=EDGE_CURVE('',#215,#217,#18,.T.);
#170=EDGE_CURVE('',#218,#217,#253,.T.);
#171=EDGE_CURVE('',#216,#218,#19,.T.);
#172=EDGE_CURVE('',#217,#219,#254,.T.);
#173=EDGE_CURVE('',#220,#219,#255,.T.);
#174=EDGE_CURVE('',#218,#220,#256,.T.);
#175=EDGE_CURVE('',#219,#221,#20,.T.);
#176=EDGE_CURVE('',#222,#221,#257,.T.);
#177=EDGE_CURVE('',#220,#222,#21,.T.);
#178=EDGE_CURVE('',#223,#221,#258,.T.);
#179=EDGE_CURVE('',#224,#223,#259,.T.);
#180=EDGE_CURVE('',#224,#222,#260,.T.);
#181=EDGE_CURVE('',#225,#223,#22,.T.);
#182=EDGE_CURVE('',#226,#225,#261,.T.);
#183=EDGE_CURVE('',#226,#224,#23,.T.);
#184=EDGE_CURVE('',#225,#227,#262,.T.);
#185=EDGE_CURVE('',#228,#227,#263,.T.);
#186=EDGE_CURVE('',#226,#228,#264,.T.);
#187=EDGE_CURVE('',#227,#229,#24,.T.);
#188=EDGE_CURVE('',#230,#229,#265,.T.);
#189=EDGE_CURVE('',#228,#230,#25,.T.);
#190=EDGE_CURVE('',#231,#229,#266,.T.);
#191=EDGE_CURVE('',#232,#231,#267,.T.);
#192=EDGE_CURVE('',#232,#230,#268,.T.);
#193=EDGE_CURVE('',#233,#231,#26,.T.);
#194=EDGE_CURVE('',#234,#233,#269,.T.);
#195=EDGE_CURVE('',#234,#232,#27,.T.);
#196=EDGE_CURVE('',#233,#235,#270,.T.);
#197=EDGE_CURVE('',#236,#235,#271,.T.);
#198=EDGE_CURVE('',#234,#236,#272,.T.);
#199=EDGE_CURVE('',#235,#202,#28,.T.);
#200=EDGE_CURVE('',#236,#204,#29,.T.);
#201=VERTEX_POINT('',#548);
#202=VERTEX_POINT('',#549);
#203=VERTEX_POINT('',#551);
#204=VERTEX_POINT('',#553);
#205=VERTEX_POINT('',#557);
#206=VERTEX_POINT('',#559);
#207=VERTEX_POINT('',#563);
#208=VERTEX_POINT('',#565);
#209=VERTEX_POINT('',#569);
#210=VERTEX_POINT('',#571);
#211=VERTEX_POINT('',#575);
#212=VERTEX_POINT('',#577);
#213=VERTEX_POINT('',#581);
#214=VERTEX_POINT('',#583);
#215=VERTEX_POINT('',#587);
#216=VERTEX_POINT('',#589);
#217=VERTEX_POINT('',#593);
#218=VERTEX_POINT('',#595);
#219=VERTEX_POINT('',#599);
#220=VERTEX_POINT('',#601);
#221=VERTEX_POINT('',#605);
#222=VERTEX_POINT('',#607);
#223=VERTEX_POINT('',#611);
#224=VERTEX_POINT('',#613);
#225=VERTEX_POINT('',#617);
#226=VERTEX_POINT('',#619);
#227=VERTEX_POINT('',#623);
#228=VERTEX_POINT('',#625);
#229=VERTEX_POINT('',#629);
#230=VERTEX_POINT('',#631);
#231=VERTEX_POINT('',#635);
#232=VERTEX_POINT('',#637);
#233=VERTEX_POINT('',#641);
#234=VERTEX_POINT('',#643);
#235=VERTEX_POINT('',#647);
#236=VERTEX_POINT('',#649);
#237=LINE('',#547,#273);
#238=LINE('',#550,#274);
#239=LINE('',#552,#275);
#240=LINE('',#554,#276);
#241=LINE('',#558,#277);
#242=LINE('',#562,#278);
#243=LINE('',#564,#279);
#244=LINE('',#566,#280);
#245=LINE('',#570,#281);
#246=LINE('',#574,#282);
#247=LINE('',#576,#283);
#248=LINE('',#578,#284);
#249=LINE('',#582,#285);
#250=LINE('',#586,#286);
#251=LINE('',#588,#287);
#252=LINE('',#590,#288);
#253=LINE('',#594,#289);
#254=LINE('',#598,#290);
#255=LINE('',#600,#291);
#256=LINE('',#602,#292);
#257=LINE('',#606,#293);
#258=LINE('',#610,#294);
#259=LINE('',#612,#295);
#260=LINE('',#614,#296);
#261=LINE('',#618,#297);
#262=LINE('',#622,#298);
#263=LINE('',#624,#299);
#264=LINE('',#626,#300);
#265=LINE('',#630,#301);
#266=LINE('',#634,#302);
#267=LINE('',#636,#303);
#268=LINE('',#638,#304);
#269=LINE('',#642,#305);
#270=LINE('',#646,#306);
#271=LINE('',#648,#307);
#272=LINE('',#650,#308);
#273=VECTOR('',#435,1.);
#274=VECTOR('',#436,1.);
#275=VECTOR('',#437,1.);
#276=VECTOR('',#438,1.);
#277=VECTOR('',#443,1.);
#278=VECTOR('',#448,1.);
#279=VECTOR('',#449,1.);
#280=VECTOR('',#450,1.);
#281=VECTOR('',#455,1.);
#282=VECTOR('',#460,1.);
#283=VECTOR('',#461,1.);
#284=VECTOR('',#462,1.);
#285=VECTOR('',#467,1.);
#286=VECTOR('',#472,1.);
#287=VECTOR('',#473,1.);
#288=VECTOR('',#474,1.);
#289=VECTOR('',#479,1.);
#290=VECTOR('',#484,1.);
#291=VECTOR('',#485,1.);
#292=VECTOR('',#486,1.);
#293=VECTOR('',#491,1.);
#294=VECTOR('',#496,1.);
#295=VECTOR('',#497,1.);
#296=VECTOR('',#498,1.);
#297=VECTOR('',#503,1.);
#298=VECTOR('',#508,1.);
#299=VECTOR('',#509,1.);
#300=VECTOR('',#510,1.);
#301=VECTOR('',#515,1.);
#302=VECTOR('',#520,1.);
#303=VECTOR('',#521,1.);
#304=VECTOR('',#522,1.);
#305=VECTOR('',#527,1.);
#306=VECTOR('',#532,1.);
#307=VECTOR('',#533,1.);
#308=VECTOR('',#534,1.);
#309=EDGE_LOOP('',(#39,#40,#41,#42));
#310=EDGE_LOOP('',(#43,#44,#45,#46));
#311=EDGE_LOOP('',(#47,#48,#49,#50));
#312=EDGE_LOOP('',(#51,#52,#53,#54));
#313=EDGE_LOOP('',(#55,#56,#57,#58));
#314=EDGE_LOOP('',(#59,#60,#61,#62));
#315=EDGE_LOOP('',(#63,#64,#65,#66));
#316=EDGE_LOOP('',(#67,#68,#69,#70));
#317=EDGE_LOOP('',(#71,#72,#73,#74));
#318=EDGE_LOOP('',(#75,#76,#77,#78));
#319=EDGE_LOOP('',(#79,#80,#81,#82));
#320=EDGE_LOOP('',(#83,#84,#85,#86));
#321=EDGE_LOOP('',(#87,#88,#89,#90));
#322=EDGE_LOOP('',(#91,#92,#93,#94));
#323=EDGE_LOOP('',(#95,#96,#97,#98));
#324=EDGE_LOOP('',(#99,#100,#101,#102));
#325=EDGE_LOOP('',(#103,#104,#105,#106));
#326=EDGE_LOOP('',(#107,#108,#109,#110));
#327=EDGE_LOOP('',(#111,#112,#113,#114,#115,#116,#117,#118,#119,#120,#121,
#122,#123,#124,#125,#126,#127,#128));
#328=EDGE_LOOP('',(#129,#130,#131,#132,#133,#134,#135,#136,#137,#138,#139,
#140,#141,#142,#143,#144,#145,#146));
#329=FACE_BOUND('',#309,.T.);
#330=FACE_BOUND('',#310,.T.);
#331=FACE_BOUND('',#311,.T.);
#332=FACE_BOUND('',#312,.T.);
#333=FACE_BOUND('',#313,.T.);
#334=FACE_BOUND('',#314,.T.);
#335=FACE_BOUND('',#315,.T.);
#336=FACE_BOUND('',#316,.T.);
#337=FACE_BOUND('',#317,.T.);
#338=FACE_BOUND('',#318,.T.);
#339=FACE_BOUND('',#319,.T.);
#340=FACE_BOUND('',#320,.T.);
#341=FACE_BOUND('',#321,.T.);
#342=FACE_BOUND('',#322,.T.);
#343=FACE_BOUND('',#323,.T.);
#344=FACE_BOUND('',#324,.T.);
#345=FACE_BOUND('',#325,.T.);
#346=FACE_BOUND('',#326,.T.);
#347=FACE_BOUND('',#327,.T.);
#348=FACE_BOUND('',#328,.T.);
#349=PLANE('',#393);
#350=PLANE('',#397);
#351=PLANE('',#401);
#352=PLANE('',#405);
#353=PLANE('',#409);
#354=PLANE('',#413);
#355=PLANE('',#417);
#356=PLANE('',#421);
#357=PLANE('',#425);
#358=PLANE('',#429);
#359=PLANE('',#430);
#360=ADVANCED_FACE('',(#329),#349,.T.);
#361=ADVANCED_FACE('',(#330),#30,.T.);
#362=ADVANCED_FACE('',(#331),#350,.T.);
#363=ADVANCED_FACE('',(#332),#31,.T.);
#364=ADVANCED_FACE('',(#333),#351,.F.);
#365=ADVANCED_FACE('',(#334),#32,.T.);
#366=ADVANCED_FACE('',(#335),#352,.T.);
#367=ADVANCED_FACE('',(#336),#33,.F.);
#368=ADVANCED_FACE('',(#337),#353,.F.);
#369=ADVANCED_FACE('',(#338),#34,.T.);
#370=ADVANCED_FACE('',(#339),#354,.T.);
#371=ADVANCED_FACE('',(#340),#35,.F.);
#372=ADVANCED_FACE('',(#341),#355,.F.);
#373=ADVANCED_FACE('',(#342),#36,.T.);
#374=ADVANCED_FACE('',(#343),#356,.T.);
#375=ADVANCED_FACE('',(#344),#37,.F.);
#376=ADVANCED_FACE('',(#345),#357,.F.);
#377=ADVANCED_FACE('',(#346),#38,.T.);
#378=ADVANCED_FACE('',(#347),#358,.T.);
#379=ADVANCED_FACE('',(#348),#359,.F.);
#380=CLOSED_SHELL('',(#360,#361,#362,#363,#364,#365,#366,#367,#368,#369,
#370,#371,#372,#373,#374,#375,#376,#377,#378,#379));
#381=STYLED_ITEM('',(#382),#389);
#382=PRESENTATION_STYLE_ASSIGNMENT((#383));
#383=SURFACE_STYLE_USAGE(.BOTH.,#384);
#384=SURFACE_SIDE_STYLE('',(#385));
#385=SURFACE_STYLE_FILL_AREA(#386);
#386=FILL_AREA_STYLE('',(#387));
#387=FILL_AREA_STYLE_COLOUR('',#388);
#388=COLOUR_RGB('',0.301960784313725,0.301960784313725,0.301960784313725);
#389=MANIFOLD_SOLID_BREP('DSCH081-M200',#380);
#390=SHAPE_DEFINITION_REPRESENTATION(#662,#391);
#391=SHAPE_REPRESENTATION('DSCH081-M200',(#392),#657);
#392=AXIS2_PLACEMENT_3D('',#545,#431,#432);
#393=AXIS2_PLACEMENT_3D('',#546,#433,#434);
#394=AXIS2_PLACEMENT_3D('',#555,#439,#440);
#395=AXIS2_PLACEMENT_3D('',#556,#441,#442);
#396=AXIS2_PLACEMENT_3D('',#560,#444,#445);
#397=AXIS2_PLACEMENT_3D('',#561,#446,#447);
#398=AXIS2_PLACEMENT_3D('',#567,#451,#452);
#399=AXIS2_PLACEMENT_3D('',#568,#453,#454);
#400=AXIS2_PLACEMENT_3D('',#572,#456,#457);
#401=AXIS2_PLACEMENT_3D('',#573,#458,#459);
#402=AXIS2_PLACEMENT_3D('',#579,#463,#464);
#403=AXIS2_PLACEMENT_3D('',#580,#465,#466);
#404=AXIS2_PLACEMENT_3D('',#584,#468,#469);
#405=AXIS2_PLACEMENT_3D('',#585,#470,#471);
#406=AXIS2_PLACEMENT_3D('',#591,#475,#476);
#407=AXIS2_PLACEMENT_3D('',#592,#477,#478);
#408=AXIS2_PLACEMENT_3D('',#596,#480,#481);
#409=AXIS2_PLACEMENT_3D('',#597,#482,#483);
#410=AXIS2_PLACEMENT_3D('',#603,#487,#488);
#411=AXIS2_PLACEMENT_3D('',#604,#489,#490);
#412=AXIS2_PLACEMENT_3D('',#608,#492,#493);
#413=AXIS2_PLACEMENT_3D('',#609,#494,#495);
#414=AXIS2_PLACEMENT_3D('',#615,#499,#500);
#415=AXIS2_PLACEMENT_3D('',#616,#501,#502);
#416=AXIS2_PLACEMENT_3D('',#620,#504,#505);
#417=AXIS2_PLACEMENT_3D('',#621,#506,#507);
#418=AXIS2_PLACEMENT_3D('',#627,#511,#512);
#419=AXIS2_PLACEMENT_3D('',#628,#513,#514);
#420=AXIS2_PLACEMENT_3D('',#632,#516,#517);
#421=AXIS2_PLACEMENT_3D('',#633,#518,#519);
#422=AXIS2_PLACEMENT_3D('',#639,#523,#524);
#423=AXIS2_PLACEMENT_3D('',#640,#525,#526);
#424=AXIS2_PLACEMENT_3D('',#644,#528,#529);
#425=AXIS2_PLACEMENT_3D('',#645,#530,#531);
#426=AXIS2_PLACEMENT_3D('',#651,#535,#536);
#427=AXIS2_PLACEMENT_3D('',#652,#537,#538);
#428=AXIS2_PLACEMENT_3D('',#653,#539,#540);
#429=AXIS2_PLACEMENT_3D('',#654,#541,#542);
#430=AXIS2_PLACEMENT_3D('',#655,#543,#544);
#431=DIRECTION('',(0.,0.,1.));
#432=DIRECTION('',(1.,0.,0.));
#433=DIRECTION('',(-1.,-3.06949212771266E-16,0.));
#434=DIRECTION('',(3.06949212771266E-16,-1.,0.));
#435=DIRECTION('',(-3.06949212771266E-16,1.,0.));
#436=DIRECTION('',(0.,0.,-1.));
#437=DIRECTION('',(-3.06949212771266E-16,1.,0.));
#438=DIRECTION('',(0.,0.,-1.));
#439=DIRECTION('',(0.,0.,-1.));
#440=DIRECTION('',(-1.,0.,0.));
#441=DIRECTION('',(0.,0.,1.));
#442=DIRECTION('',(1.,0.,0.));
#443=DIRECTION('',(0.,0.,-1.));
#444=DIRECTION('',(0.,0.,1.));
#445=DIRECTION('',(1.,0.,0.));
#446=DIRECTION('',(1.47401870161741E-16,-1.,0.));
#447=DIRECTION('',(1.,1.47401870161741E-16,0.));
#448=DIRECTION('',(-1.,-1.47401870161741E-16,0.));
#449=DIRECTION('',(0.,0.,-1.));
#450=DIRECTION('',(-1.,-1.47401870161741E-16,0.));
#451=DIRECTION('',(0.,0.,-1.));
#452=DIRECTION('',(-1.,0.,0.));
#453=DIRECTION('',(0.,0.,1.));
#454=DIRECTION('',(1.,0.,0.));
#455=DIRECTION('',(0.,0.,-1.));
#456=DIRECTION('',(0.,0.,1.));
#457=DIRECTION('',(1.,0.,0.));
#458=DIRECTION('',(-1.,-3.06949212771266E-16,0.));
#459=DIRECTION('',(3.06949212771266E-16,-1.,0.));
#460=DIRECTION('',(-3.06949212771266E-16,1.,0.));
#461=DIRECTION('',(0.,0.,-1.));
#462=DIRECTION('',(-3.06949212771266E-16,1.,0.));
#463=DIRECTION('',(0.,0.,-1.));
#464=DIRECTION('',(-1.,0.,0.));
#465=DIRECTION('',(0.,0.,1.));
#466=DIRECTION('',(1.,0.,0.));
#467=DIRECTION('',(0.,0.,-1.));
#468=DIRECTION('',(0.,0.,1.));
#469=DIRECTION('',(1.,0.,0.));
#470=DIRECTION('',(-1.,0.,0.));
#471=DIRECTION('',(0.,0.,1.));
#472=DIRECTION('',(0.,1.,0.));
#473=DIRECTION('',(0.,0.,-1.));
#474=DIRECTION('',(0.,1.,0.));
#475=DIRECTION('',(0.,0.,-1.));
#476=DIRECTION('',(-1.,0.,0.));
#477=DIRECTION('',(0.,0.,-1.));
#478=DIRECTION('',(1.,0.,0.));
#479=DIRECTION('',(0.,0.,-1.));
#480=DIRECTION('',(0.,0.,-1.));
#481=DIRECTION('',(1.,0.,0.));
#482=DIRECTION('',(-1.,0.,0.));
#483=DIRECTION('',(0.,0.,1.));
#484=DIRECTION('',(0.,1.,0.));
#485=DIRECTION('',(0.,0.,-1.));
#486=DIRECTION('',(0.,1.,0.));
#487=DIRECTION('',(0.,0.,-1.));
#488=DIRECTION('',(-1.,0.,0.));
#489=DIRECTION('',(0.,0.,1.));
#490=DIRECTION('',(1.,0.,0.));
#491=DIRECTION('',(0.,0.,-1.));
#492=DIRECTION('',(0.,0.,1.));
#493=DIRECTION('',(1.,0.,0.));
#494=DIRECTION('',(-1.,0.,0.));
#495=DIRECTION('',(0.,0.,1.));
#496=DIRECTION('',(0.,1.,0.));
#497=DIRECTION('',(0.,0.,-1.));
#498=DIRECTION('',(0.,1.,0.));
#499=DIRECTION('',(0.,0.,-1.));
#500=DIRECTION('',(-1.,0.,0.));
#501=DIRECTION('',(0.,0.,1.));
#502=DIRECTION('',(1.,0.,0.));
#503=DIRECTION('',(0.,0.,-1.));
#504=DIRECTION('',(0.,0.,1.));
#505=DIRECTION('',(1.,0.,0.));
#506=DIRECTION('',(-1.,0.,0.));
#507=DIRECTION('',(0.,0.,1.));
#508=DIRECTION('',(0.,1.,0.));
#509=DIRECTION('',(0.,0.,-1.));
#510=DIRECTION('',(0.,1.,0.));
#511=DIRECTION('',(0.,0.,-1.));
#512=DIRECTION('',(-1.,0.,0.));
#513=DIRECTION('',(0.,0.,1.));
#514=DIRECTION('',(1.,0.,0.));
#515=DIRECTION('',(0.,0.,-1.));
#516=DIRECTION('',(0.,0.,1.));
#517=DIRECTION('',(1.,0.,0.));
#518=DIRECTION('',(-1.,0.,0.));
#519=DIRECTION('',(0.,0.,1.));
#520=DIRECTION('',(0.,1.,0.));
#521=DIRECTION('',(0.,0.,-1.));
#522=DIRECTION('',(0.,1.,0.));
#523=DIRECTION('',(0.,0.,-1.));
#524=DIRECTION('',(-1.,0.,0.));
#525=DIRECTION('',(0.,0.,1.));
#526=DIRECTION('',(1.,0.,0.));
#527=DIRECTION('',(0.,0.,-1.));
#528=DIRECTION('',(0.,0.,1.));
#529=DIRECTION('',(1.,0.,0.));
#530=DIRECTION('',(-1.,0.,0.));
#531=DIRECTION('',(0.,0.,1.));
#532=DIRECTION('',(0.,1.,0.));
#533=DIRECTION('',(0.,0.,-1.));
#534=DIRECTION('',(0.,1.,0.));
#535=DIRECTION('',(0.,0.,-1.));
#536=DIRECTION('',(-1.,0.,0.));
#537=DIRECTION('',(0.,0.,1.));
#538=DIRECTION('',(1.,0.,0.));
#539=DIRECTION('',(0.,0.,1.));
#540=DIRECTION('',(1.,0.,0.));
#541=DIRECTION('',(0.,0.,1.));
#542=DIRECTION('',(1.,0.,0.));
#543=DIRECTION('',(0.,0.,1.));
#544=DIRECTION('',(1.,0.,0.));
#545=CARTESIAN_POINT('',(0.,0.,0.));
#546=CARTESIAN_POINT('',(-0.0381,-6.93889390390723E-18,0.002));
#547=CARTESIAN_POINT('',(-0.0381,-6.93889390390723E-18,0.));
#548=CARTESIAN_POINT('',(-0.0381,-0.022606,0.));
#549=CARTESIAN_POINT('',(-0.0381,0.022606,0.));
#550=CARTESIAN_POINT('',(-0.0381,-0.022606,0.002));
#551=CARTESIAN_POINT('',(-0.0381,-0.022606,0.002));
#552=CARTESIAN_POINT('',(-0.0381,-6.93889390390723E-18,0.002));
#553=CARTESIAN_POINT('',(-0.0381,0.022606,0.002));
#554=CARTESIAN_POINT('',(-0.0381,0.022606,0.002));
#555=CARTESIAN_POINT('',(-0.035306,-0.022606,0.002));
#556=CARTESIAN_POINT('',(-0.035306,-0.022606,0.));
#557=CARTESIAN_POINT('',(-0.035306,-0.0254,0.));
#558=CARTESIAN_POINT('',(-0.035306,-0.0254,0.002));
#559=CARTESIAN_POINT('',(-0.035306,-0.0254,0.002));
#560=CARTESIAN_POINT('',(-0.035306,-0.022606,0.002));
#561=CARTESIAN_POINT('',(6.93889390390723E-18,-0.0254,0.002));
#562=CARTESIAN_POINT('',(6.93889390390723E-18,-0.0254,0.));
#563=CARTESIAN_POINT('',(0.035306,-0.0254,0.));
#564=CARTESIAN_POINT('',(0.035306,-0.0254,0.002));
#565=CARTESIAN_POINT('',(0.035306,-0.0254,0.002));
#566=CARTESIAN_POINT('',(6.93889390390723E-18,-0.0254,0.002));
#567=CARTESIAN_POINT('',(0.035306,-0.022606,0.002));
#568=CARTESIAN_POINT('',(0.035306,-0.022606,0.));
#569=CARTESIAN_POINT('',(0.0381,-0.022606,0.));
#570=CARTESIAN_POINT('',(0.0381,-0.022606,0.002));
#571=CARTESIAN_POINT('',(0.0381,-0.022606,0.002));
#572=CARTESIAN_POINT('',(0.035306,-0.022606,0.002));
#573=CARTESIAN_POINT('',(0.0381,0.,0.002));
#574=CARTESIAN_POINT('',(0.0381,0.,0.));
#575=CARTESIAN_POINT('',(0.0381,0.022606,0.));
#576=CARTESIAN_POINT('',(0.0381,0.022606,0.002));
#577=CARTESIAN_POINT('',(0.0381,0.022606,0.002));
#578=CARTESIAN_POINT('',(0.0381,0.,0.002));
#579=CARTESIAN_POINT('',(0.035306,0.022606,0.002));
#580=CARTESIAN_POINT('',(0.035306,0.022606,0.));
#581=CARTESIAN_POINT('',(0.032512,0.022606,0.));
#582=CARTESIAN_POINT('',(0.032512,0.022606,0.002));
#583=CARTESIAN_POINT('',(0.032512,0.022606,0.002));
#584=CARTESIAN_POINT('',(0.035306,0.022606,0.002));
#585=CARTESIAN_POINT('',(0.032512,0.004953,0.002));
#586=CARTESIAN_POINT('',(0.032512,0.004953,0.));
#587=CARTESIAN_POINT('',(0.032512,-0.0127,0.));
#588=CARTESIAN_POINT('',(0.032512,-0.0127,0.002));
#589=CARTESIAN_POINT('',(0.032512,-0.0127,0.002));
#590=CARTESIAN_POINT('',(0.032512,0.004953,0.002));
#591=CARTESIAN_POINT('',(0.0254,-0.0127,0.002));
#592=CARTESIAN_POINT('',(0.0254,-0.0127,0.));
#593=CARTESIAN_POINT('',(0.018288,-0.0127,0.));
#594=CARTESIAN_POINT('',(0.018288,-0.0127,0.002));
#595=CARTESIAN_POINT('',(0.018288,-0.0127,0.002));
#596=CARTESIAN_POINT('',(0.0254,-0.0127,0.002));
#597=CARTESIAN_POINT('',(0.018288,0.003556,0.002));
#598=CARTESIAN_POINT('',(0.018288,0.003556,0.));
#599=CARTESIAN_POINT('',(0.018288,0.019812,0.));
#600=CARTESIAN_POINT('',(0.018288,0.019812,0.002));
#601=CARTESIAN_POINT('',(0.018288,0.019812,0.002));
#602=CARTESIAN_POINT('',(0.018288,0.003556,0.002));
#603=CARTESIAN_POINT('',(0.0127,0.019812,0.002));
#604=CARTESIAN_POINT('',(0.0127,0.019812,0.));
#605=CARTESIAN_POINT('',(0.007112,0.019812,0.));
#606=CARTESIAN_POINT('',(0.007112,0.019812,0.002));
#607=CARTESIAN_POINT('',(0.007112,0.019812,0.002));
#608=CARTESIAN_POINT('',(0.0127,0.019812,0.002));
#609=CARTESIAN_POINT('',(0.007112,0.003556,0.002));
#610=CARTESIAN_POINT('',(0.007112,0.003556,0.));
#611=CARTESIAN_POINT('',(0.007112,-0.0127,0.));
#612=CARTESIAN_POINT('',(0.007112,-0.0127,0.002));
#613=CARTESIAN_POINT('',(0.007112,-0.0127,0.002));
#614=CARTESIAN_POINT('',(0.007112,0.003556,0.002));
#615=CARTESIAN_POINT('',(0.,-0.0127,0.002));
#616=CARTESIAN_POINT('',(0.,-0.0127,0.));
#617=CARTESIAN_POINT('',(-0.007112,-0.0127,0.));
#618=CARTESIAN_POINT('',(-0.007112,-0.0127,0.002));
#619=CARTESIAN_POINT('',(-0.007112,-0.0127,0.002));
#620=CARTESIAN_POINT('',(0.,-0.0127,0.002));
#621=CARTESIAN_POINT('',(-0.007112,0.003556,0.002));
#622=CARTESIAN_POINT('',(-0.007112,0.003556,0.));
#623=CARTESIAN_POINT('',(-0.007112,0.019812,0.));
#624=CARTESIAN_POINT('',(-0.007112,0.019812,0.002));
#625=CARTESIAN_POINT('',(-0.007112,0.019812,0.002));
#626=CARTESIAN_POINT('',(-0.007112,0.003556,0.002));
#627=CARTESIAN_POINT('',(-0.0127,0.019812,0.002));
#628=CARTESIAN_POINT('',(-0.0127,0.019812,0.));
#629=CARTESIAN_POINT('',(-0.018288,0.019812,0.));
#630=CARTESIAN_POINT('',(-0.018288,0.019812,0.002));
#631=CARTESIAN_POINT('',(-0.018288,0.019812,0.002));
#632=CARTESIAN_POINT('',(-0.0127,0.019812,0.002));
#633=CARTESIAN_POINT('',(-0.018288,0.003556,0.002));
#634=CARTESIAN_POINT('',(-0.018288,0.003556,0.));
#635=CARTESIAN_POINT('',(-0.018288,-0.0127,0.));
#636=CARTESIAN_POINT('',(-0.018288,-0.0127,0.002));
#637=CARTESIAN_POINT('',(-0.018288,-0.0127,0.002));
#638=CARTESIAN_POINT('',(-0.018288,0.003556,0.002));
#639=CARTESIAN_POINT('',(-0.0254,-0.0127,0.002));
#640=CARTESIAN_POINT('',(-0.0254,-0.0127,0.));
#641=CARTESIAN_POINT('',(-0.032512,-0.0127,0.));
#642=CARTESIAN_POINT('',(-0.032512,-0.0127,0.002));
#643=CARTESIAN_POINT('',(-0.032512,-0.0127,0.002));
#644=CARTESIAN_POINT('',(-0.0254,-0.0127,0.002));
#645=CARTESIAN_POINT('',(-0.032512,0.004953,0.002));
#646=CARTESIAN_POINT('',(-0.032512,0.004953,0.));
#647=CARTESIAN_POINT('',(-0.032512,0.022606,0.));
#648=CARTESIAN_POINT('',(-0.032512,0.022606,0.002));
#649=CARTESIAN_POINT('',(-0.032512,0.022606,0.002));
#650=CARTESIAN_POINT('',(-0.032512,0.004953,0.002));
#651=CARTESIAN_POINT('',(-0.035306,0.022606,0.002));
#652=CARTESIAN_POINT('',(-0.035306,0.022606,0.));
#653=CARTESIAN_POINT('',(-0.035306,0.022606,0.002));
#654=CARTESIAN_POINT('',(0.,-3.46944695195361E-18,0.002));
#655=CARTESIAN_POINT('',(0.,-3.46944695195361E-18,0.));
#656=MECHANICAL_DESIGN_GEOMETRIC_PRESENTATION_REPRESENTATION('',(#381),
#657);
#657=(
GEOMETRIC_REPRESENTATION_CONTEXT(3)
GLOBAL_UNCERTAINTY_ASSIGNED_CONTEXT((#658))
GLOBAL_UNIT_ASSIGNED_CONTEXT((#661,#660,#659))
REPRESENTATION_CONTEXT('DSCH081-M200','TOP_LEVEL_ASSEMBLY_PART')
);
#658=UNCERTAINTY_MEASURE_WITH_UNIT(LENGTH_MEASURE(5.E-6),#661,
'DISTANCE_ACCURACY_VALUE','Maximum Tolerance applied to model');
#659=(
NAMED_UNIT(*)
SI_UNIT($,.STERADIAN.)
SOLID_ANGLE_UNIT()
);
#660=(
NAMED_UNIT(*)
PLANE_ANGLE_UNIT()
SI_UNIT($,.RADIAN.)
);
#661=(
LENGTH_UNIT()
NAMED_UNIT(*)
SI_UNIT($,.METRE.)
);
#662=PRODUCT_DEFINITION_SHAPE('','',#663);
#663=PRODUCT_DEFINITION('','',#665,#664);
#664=PRODUCT_DEFINITION_CONTEXT('',#671,'design');
#665=PRODUCT_DEFINITION_FORMATION_WITH_SPECIFIED_SOURCE('','',#667,
 .NOT_KNOWN.);
#666=PRODUCT_RELATED_PRODUCT_CATEGORY('','',(#667));
#667=PRODUCT('DSCH081-M200','DSCH081-M200','DSCH081-M200',(#669));
#668=PRODUCT_CATEGORY('','');
#669=PRODUCT_CONTEXT('',#671,'mechanical');
#670=APPLICATION_PROTOCOL_DEFINITION('international standard',
'ap242_managed_model_based_3d_engineering',2011,#671);
#671=APPLICATION_CONTEXT('managed model based 3d engineering');
ENDSEC;
END-ISO-10303-21;
