ISO-10303-21;
HEADER;
/* Generated by software containing ST-Developer
 * from STEP Tools, Inc. (www.steptools.com) 
 */
/* OPTION: using custom renumber hook */

FILE_DESCRIPTION(
/* description */ ('STEP AP242',
'CAx-IF Rec.Pracs.---Representation and Presentation of Product Manufa
cturing Information (PMI)---4.0---2014-10-13',
'CAx-IF Rec.Pracs.---3D Tessellated Geometry---0.4---2014-09-14','2;1'),

/* implementation_level */ '2;1');

FILE_NAME(
/* name */ '627bd0a81652793d491e7d52',
/* time_stamp */ '2022-05-11T15:05:12+00:00',
/* author */ (''),
/* organization */ (''),
/* preprocessor_version */ 'ST-DEVELOPER v18.101',
/* originating_system */ '  ',
/* authorisation */ '  ');

FILE_SCHEMA (('AP242_MANAGED_MODEL_BASED_3D_ENGINEERING_MIM_LF { 1 0 10303 442 1 1 4 }'));
ENDSEC;

DATA;
#10=SHAPE_REPRESENTATION_RELATIONSHIP('','',#135,#11);
#11=ADVANCED_BREP_SHAPE_REPRESENTATION('',(#133),#211);
#12=CIRCLE('',#141,0.007112);
#13=CIRCLE('',#142,0.007112);
#14=CYLINDRICAL_SURFACE('',#140,0.007112);
#15=ORIENTED_EDGE('',*,*,#43,.F.);
#16=ORIENTED_EDGE('',*,*,#44,.F.);
#17=ORIENTED_EDGE('',*,*,#45,.T.);
#18=ORIENTED_EDGE('',*,*,#46,.T.);
#19=ORIENTED_EDGE('',*,*,#47,.T.);
#20=ORIENTED_EDGE('',*,*,#48,.F.);
#21=ORIENTED_EDGE('',*,*,#49,.F.);
#22=ORIENTED_EDGE('',*,*,#44,.T.);
#23=ORIENTED_EDGE('',*,*,#50,.T.);
#24=ORIENTED_EDGE('',*,*,#51,.F.);
#25=ORIENTED_EDGE('',*,*,#52,.F.);
#26=ORIENTED_EDGE('',*,*,#48,.T.);
#27=ORIENTED_EDGE('',*,*,#53,.T.);
#28=ORIENTED_EDGE('',*,*,#54,.F.);
#29=ORIENTED_EDGE('',*,*,#55,.F.);
#30=ORIENTED_EDGE('',*,*,#46,.F.);
#31=ORIENTED_EDGE('',*,*,#56,.T.);
#32=ORIENTED_EDGE('',*,*,#51,.T.);
#33=ORIENTED_EDGE('',*,*,#53,.F.);
#34=ORIENTED_EDGE('',*,*,#45,.F.);
#35=ORIENTED_EDGE('',*,*,#49,.T.);
#36=ORIENTED_EDGE('',*,*,#52,.T.);
#37=ORIENTED_EDGE('',*,*,#56,.F.);
#38=ORIENTED_EDGE('',*,*,#54,.T.);
#39=ORIENTED_EDGE('',*,*,#43,.T.);
#40=ORIENTED_EDGE('',*,*,#55,.T.);
#41=ORIENTED_EDGE('',*,*,#50,.F.);
#42=ORIENTED_EDGE('',*,*,#47,.F.);
#43=EDGE_CURVE('',#57,#58,#67,.T.);
#44=EDGE_CURVE('',#59,#57,#68,.T.);
#45=EDGE_CURVE('',#59,#60,#69,.T.);
#46=EDGE_CURVE('',#60,#58,#70,.T.);
#47=EDGE_CURVE('',#57,#61,#71,.T.);
#48=EDGE_CURVE('',#62,#61,#72,.T.);
#49=EDGE_CURVE('',#59,#62,#73,.T.);
#50=EDGE_CURVE('',#61,#63,#74,.T.);
#51=EDGE_CURVE('',#64,#63,#75,.T.);
#52=EDGE_CURVE('',#62,#64,#76,.T.);
#53=EDGE_CURVE('',#65,#65,#12,.T.);
#54=EDGE_CURVE('',#66,#66,#13,.T.);
#55=EDGE_CURVE('',#58,#63,#77,.T.);
#56=EDGE_CURVE('',#60,#64,#78,.T.);
#57=VERTEX_POINT('',#181);
#58=VERTEX_POINT('',#182);
#59=VERTEX_POINT('',#184);
#60=VERTEX_POINT('',#186);
#61=VERTEX_POINT('',#190);
#62=VERTEX_POINT('',#192);
#63=VERTEX_POINT('',#196);
#64=VERTEX_POINT('',#198);
#65=VERTEX_POINT('',#202);
#66=VERTEX_POINT('',#204);
#67=LINE('',#180,#79);
#68=LINE('',#183,#80);
#69=LINE('',#185,#81);
#70=LINE('',#187,#82);
#71=LINE('',#189,#83);
#72=LINE('',#191,#84);
#73=LINE('',#193,#85);
#74=LINE('',#195,#86);
#75=LINE('',#197,#87);
#76=LINE('',#199,#88);
#77=LINE('',#206,#89);
#78=LINE('',#207,#90);
#79=VECTOR('',#150,1.);
#80=VECTOR('',#151,1.);
#81=VECTOR('',#152,1.);
#82=VECTOR('',#153,1.);
#83=VECTOR('',#156,1.);
#84=VECTOR('',#157,1.);
#85=VECTOR('',#158,1.);
#86=VECTOR('',#161,1.);
#87=VECTOR('',#162,1.);
#88=VECTOR('',#163,1.);
#89=VECTOR('',#172,1.);
#90=VECTOR('',#173,1.);
#91=EDGE_LOOP('',(#15,#16,#17,#18));
#92=EDGE_LOOP('',(#19,#20,#21,#22));
#93=EDGE_LOOP('',(#23,#24,#25,#26));
#94=EDGE_LOOP('',(#27));
#95=EDGE_LOOP('',(#28));
#96=EDGE_LOOP('',(#29,#30,#31,#32));
#97=EDGE_LOOP('',(#33));
#98=EDGE_LOOP('',(#34,#35,#36,#37));
#99=EDGE_LOOP('',(#38));
#100=EDGE_LOOP('',(#39,#40,#41,#42));
#101=FACE_BOUND('',#91,.T.);
#102=FACE_BOUND('',#92,.T.);
#103=FACE_BOUND('',#93,.T.);
#104=FACE_BOUND('',#94,.T.);
#105=FACE_BOUND('',#95,.T.);
#106=FACE_BOUND('',#96,.T.);
#107=FACE_BOUND('',#97,.T.);
#108=FACE_BOUND('',#98,.T.);
#109=FACE_BOUND('',#99,.T.);
#110=FACE_BOUND('',#100,.T.);
#111=PLANE('',#137);
#112=PLANE('',#138);
#113=PLANE('',#139);
#114=PLANE('',#143);
#115=PLANE('',#144);
#116=PLANE('',#145);
#117=ADVANCED_FACE('',(#101),#111,.T.);
#118=ADVANCED_FACE('',(#102),#112,.F.);
#119=ADVANCED_FACE('',(#103),#113,.F.);
#120=ADVANCED_FACE('',(#104,#105),#14,.F.);
#121=ADVANCED_FACE('',(#106),#114,.T.);
#122=ADVANCED_FACE('',(#107,#108),#115,.T.);
#123=ADVANCED_FACE('',(#109,#110),#116,.F.);
#124=CLOSED_SHELL('',(#117,#118,#119,#120,#121,#122,#123));
#125=STYLED_ITEM('',(#126),#133);
#126=PRESENTATION_STYLE_ASSIGNMENT((#127));
#127=SURFACE_STYLE_USAGE(.BOTH.,#128);
#128=SURFACE_SIDE_STYLE('',(#129));
#129=SURFACE_STYLE_FILL_AREA(#130);
#130=FILL_AREA_STYLE('',(#131));
#131=FILL_AREA_STYLE_COLOUR('',#132);
#132=COLOUR_RGB('',0.917647058823529,0.917647058823529,0.917647058823529);
#133=MANIFOLD_SOLID_BREP('DSCH086-E062',#124);
#134=SHAPE_DEFINITION_REPRESENTATION(#216,#135);
#135=SHAPE_REPRESENTATION('DSCH086-E062',(#136),#211);
#136=AXIS2_PLACEMENT_3D('',#178,#146,#147);
#137=AXIS2_PLACEMENT_3D('',#179,#148,#149);
#138=AXIS2_PLACEMENT_3D('',#188,#154,#155);
#139=AXIS2_PLACEMENT_3D('',#194,#159,#160);
#140=AXIS2_PLACEMENT_3D('',#200,#164,#165);
#141=AXIS2_PLACEMENT_3D('',#201,#166,#167);
#142=AXIS2_PLACEMENT_3D('',#203,#168,#169);
#143=AXIS2_PLACEMENT_3D('',#205,#170,#171);
#144=AXIS2_PLACEMENT_3D('',#208,#174,#175);
#145=AXIS2_PLACEMENT_3D('',#209,#176,#177);
#146=DIRECTION('',(0.,0.,1.));
#147=DIRECTION('',(1.,0.,0.));
#148=DIRECTION('',(9.10615997888088E-17,-1.,0.));
#149=DIRECTION('',(1.,9.10615997888088E-17,0.));
#150=DIRECTION('',(-1.,-9.10615997888088E-17,0.));
#151=DIRECTION('',(0.,0.,-1.));
#152=DIRECTION('',(-1.,-9.10615997888088E-17,0.));
#153=DIRECTION('',(0.,0.,-1.));
#154=DIRECTION('',(-1.,0.,0.));
#155=DIRECTION('',(0.,0.,1.));
#156=DIRECTION('',(0.,1.,0.));
#157=DIRECTION('',(0.,0.,-1.));
#158=DIRECTION('',(0.,1.,0.));
#159=DIRECTION('',(1.82123199577617E-16,-1.,0.));
#160=DIRECTION('',(1.,1.82123199577617E-16,0.));
#161=DIRECTION('',(-1.,-1.82123199577617E-16,0.));
#162=DIRECTION('',(0.,0.,-1.));
#163=DIRECTION('',(-1.,-1.82123199577617E-16,0.));
#164=DIRECTION('',(0.,0.,-1.));
#165=DIRECTION('',(-1.,0.,0.));
#166=DIRECTION('',(0.,0.,1.));
#167=DIRECTION('',(1.,0.,0.));
#168=DIRECTION('',(0.,0.,1.));
#169=DIRECTION('',(1.,0.,0.));
#170=DIRECTION('',(-1.,0.,0.));
#171=DIRECTION('',(0.,0.,1.));
#172=DIRECTION('',(0.,1.,0.));
#173=DIRECTION('',(0.,1.,0.));
#174=DIRECTION('',(0.,0.,1.));
#175=DIRECTION('',(1.,0.,0.));
#176=DIRECTION('',(0.,0.,1.));
#177=DIRECTION('',(1.,0.,0.));
#178=CARTESIAN_POINT('',(0.,0.,0.));
#179=CARTESIAN_POINT('',(0.,-0.009525,0.0015748));
#180=CARTESIAN_POINT('',(0.,-0.009525,0.));
#181=CARTESIAN_POINT('',(0.009525,-0.009525,0.));
#182=CARTESIAN_POINT('',(-0.009525,-0.009525,0.));
#183=CARTESIAN_POINT('',(0.009525,-0.009525,0.0015748));
#184=CARTESIAN_POINT('',(0.009525,-0.009525,0.0015748));
#185=CARTESIAN_POINT('',(0.,-0.009525,0.0015748));
#186=CARTESIAN_POINT('',(-0.009525,-0.009525,0.0015748));
#187=CARTESIAN_POINT('',(-0.009525,-0.009525,0.0015748));
#188=CARTESIAN_POINT('',(0.009525,1.7347234759768E-18,0.0015748));
#189=CARTESIAN_POINT('',(0.009525,1.7347234759768E-18,0.));
#190=CARTESIAN_POINT('',(0.009525,0.009525,0.));
#191=CARTESIAN_POINT('',(0.009525,0.009525,0.0015748));
#192=CARTESIAN_POINT('',(0.009525,0.009525,0.0015748));
#193=CARTESIAN_POINT('',(0.009525,1.7347234759768E-18,0.0015748));
#194=CARTESIAN_POINT('',(0.,0.009525,0.0015748));
#195=CARTESIAN_POINT('',(0.,0.009525,0.));
#196=CARTESIAN_POINT('',(-0.009525,0.009525,0.));
#197=CARTESIAN_POINT('',(-0.009525,0.009525,0.0015748));
#198=CARTESIAN_POINT('',(-0.009525,0.009525,0.0015748));
#199=CARTESIAN_POINT('',(0.,0.009525,0.0015748));
#200=CARTESIAN_POINT('',(0.,4.35484401776799E-19,0.0015748));
#201=CARTESIAN_POINT('',(0.,4.35484401776799E-19,0.0015748));
#202=CARTESIAN_POINT('',(0.007112,4.35484401776799E-19,0.0015748));
#203=CARTESIAN_POINT('',(0.,4.35484401776799E-19,0.));
#204=CARTESIAN_POINT('',(0.007112,4.35484401776799E-19,0.));
#205=CARTESIAN_POINT('',(-0.009525,-1.7347234759768E-18,0.0015748));
#206=CARTESIAN_POINT('',(-0.009525,-1.7347234759768E-18,0.));
#207=CARTESIAN_POINT('',(-0.009525,-1.7347234759768E-18,0.0015748));
#208=CARTESIAN_POINT('',(0.,0.,0.0015748));
#209=CARTESIAN_POINT('',(0.,0.,0.));
#210=MECHANICAL_DESIGN_GEOMETRIC_PRESENTATION_REPRESENTATION('',(#125),
#211);
#211=(
GEOMETRIC_REPRESENTATION_CONTEXT(3)
GLOBAL_UNCERTAINTY_ASSIGNED_CONTEXT((#212))
GLOBAL_UNIT_ASSIGNED_CONTEXT((#215,#214,#213))
REPRESENTATION_CONTEXT('DSCH086-E062','TOP_LEVEL_ASSEMBLY_PART')
);
#212=UNCERTAINTY_MEASURE_WITH_UNIT(LENGTH_MEASURE(5.E-6),#215,
'DISTANCE_ACCURACY_VALUE','Maximum Tolerance applied to model');
#213=(
NAMED_UNIT(*)
SI_UNIT($,.STERADIAN.)
SOLID_ANGLE_UNIT()
);
#214=(
NAMED_UNIT(*)
PLANE_ANGLE_UNIT()
SI_UNIT($,.RADIAN.)
);
#215=(
LENGTH_UNIT()
NAMED_UNIT(*)
SI_UNIT($,.METRE.)
);
#216=PRODUCT_DEFINITION_SHAPE('','',#217);
#217=PRODUCT_DEFINITION('','',#219,#218);
#218=PRODUCT_DEFINITION_CONTEXT('',#225,'design');
#219=PRODUCT_DEFINITION_FORMATION_WITH_SPECIFIED_SOURCE('','',#221,
 .NOT_KNOWN.);
#220=PRODUCT_RELATED_PRODUCT_CATEGORY('','',(#221));
#221=PRODUCT('DSCH086-E062','DSCH086-E062','DSCH086-E062',(#223));
#222=PRODUCT_CATEGORY('','');
#223=PRODUCT_CONTEXT('',#225,'mechanical');
#224=APPLICATION_PROTOCOL_DEFINITION('international standard',
'ap242_managed_model_based_3d_engineering',2011,#225);
#225=APPLICATION_CONTEXT('managed model based 3d engineering');
ENDSEC;
END-ISO-10303-21;
