ISO-10303-21;
HEADER;
/* Generated by software containing ST-Developer
 * from STEP Tools, Inc. (www.steptools.com) 
 */
/* OPTION: using custom renumber hook */

FILE_DESCRIPTION(
/* description */ ('STEP AP242',
'CAx-IF Rec.Pracs.---Representation and Presentation of Product Manufa
cturing Information (PMI)---4.0---2014-10-13',
'CAx-IF Rec.Pracs.---3D Tessellated Geometry---0.4---2014-09-14','2;1'),

/* implementation_level */ '2;1');

FILE_NAME(
/* name */ '627cf2e08560582d466b95be',
/* time_stamp */ '2022-05-12T11:43:29+00:00',
/* author */ (''),
/* organization */ (''),
/* preprocessor_version */ 'ST-DEVELOPER v18.101',
/* originating_system */ '  ',
/* authorisation */ '  ');

FILE_SCHEMA (('AP242_MANAGED_MODEL_BASED_3D_ENGINEERING_MIM_LF { 1 0 10303 442 1 1 4 }'));
ENDSEC;

DATA;
#10=SHAPE_REPRESENTATION_RELATIONSHIP('','',#255,#11);
#11=ADVANCED_BREP_SHAPE_REPRESENTATION('',(#253),#415);
#12=CIRCLE('',#261,0.009525);
#13=CIRCLE('',#262,0.009525);
#14=CIRCLE('',#264,0.007112);
#15=CIRCLE('',#265,0.007112);
#16=CIRCLE('',#267,0.007112);
#17=CIRCLE('',#268,0.007112);
#18=CIRCLE('',#270,0.007112);
#19=CIRCLE('',#271,0.007112);
#20=CIRCLE('',#273,0.007112);
#21=CIRCLE('',#274,0.007112);
#22=CIRCLE('',#276,0.007112);
#23=CIRCLE('',#277,0.007112);
#24=CIRCLE('',#279,0.007112);
#25=CIRCLE('',#280,0.007112);
#26=CYLINDRICAL_SURFACE('',#260,0.009525);
#27=CYLINDRICAL_SURFACE('',#263,0.007112);
#28=CYLINDRICAL_SURFACE('',#266,0.007112);
#29=CYLINDRICAL_SURFACE('',#269,0.007112);
#30=CYLINDRICAL_SURFACE('',#272,0.007112);
#31=CYLINDRICAL_SURFACE('',#275,0.007112);
#32=CYLINDRICAL_SURFACE('',#278,0.007112);
#33=ORIENTED_EDGE('',*,*,#85,.F.);
#34=ORIENTED_EDGE('',*,*,#86,.F.);
#35=ORIENTED_EDGE('',*,*,#87,.T.);
#36=ORIENTED_EDGE('',*,*,#88,.T.);
#37=ORIENTED_EDGE('',*,*,#89,.T.);
#38=ORIENTED_EDGE('',*,*,#90,.F.);
#39=ORIENTED_EDGE('',*,*,#91,.F.);
#40=ORIENTED_EDGE('',*,*,#86,.T.);
#41=ORIENTED_EDGE('',*,*,#92,.T.);
#42=ORIENTED_EDGE('',*,*,#93,.F.);
#43=ORIENTED_EDGE('',*,*,#94,.F.);
#44=ORIENTED_EDGE('',*,*,#90,.T.);
#45=ORIENTED_EDGE('',*,*,#95,.T.);
#46=ORIENTED_EDGE('',*,*,#96,.F.);
#47=ORIENTED_EDGE('',*,*,#97,.T.);
#48=ORIENTED_EDGE('',*,*,#98,.F.);
#49=ORIENTED_EDGE('',*,*,#99,.T.);
#50=ORIENTED_EDGE('',*,*,#100,.F.);
#51=ORIENTED_EDGE('',*,*,#101,.T.);
#52=ORIENTED_EDGE('',*,*,#102,.F.);
#53=ORIENTED_EDGE('',*,*,#103,.F.);
#54=ORIENTED_EDGE('',*,*,#104,.T.);
#55=ORIENTED_EDGE('',*,*,#105,.F.);
#56=ORIENTED_EDGE('',*,*,#106,.T.);
#57=ORIENTED_EDGE('',*,*,#107,.F.);
#58=ORIENTED_EDGE('',*,*,#108,.T.);
#59=ORIENTED_EDGE('',*,*,#109,.F.);
#60=ORIENTED_EDGE('',*,*,#88,.F.);
#61=ORIENTED_EDGE('',*,*,#110,.T.);
#62=ORIENTED_EDGE('',*,*,#93,.T.);
#63=ORIENTED_EDGE('',*,*,#107,.T.);
#64=ORIENTED_EDGE('',*,*,#105,.T.);
#65=ORIENTED_EDGE('',*,*,#103,.T.);
#66=ORIENTED_EDGE('',*,*,#101,.F.);
#67=ORIENTED_EDGE('',*,*,#99,.F.);
#68=ORIENTED_EDGE('',*,*,#97,.F.);
#69=ORIENTED_EDGE('',*,*,#95,.F.);
#70=ORIENTED_EDGE('',*,*,#87,.F.);
#71=ORIENTED_EDGE('',*,*,#91,.T.);
#72=ORIENTED_EDGE('',*,*,#94,.T.);
#73=ORIENTED_EDGE('',*,*,#110,.F.);
#74=ORIENTED_EDGE('',*,*,#108,.F.);
#75=ORIENTED_EDGE('',*,*,#106,.F.);
#76=ORIENTED_EDGE('',*,*,#104,.F.);
#77=ORIENTED_EDGE('',*,*,#102,.T.);
#78=ORIENTED_EDGE('',*,*,#100,.T.);
#79=ORIENTED_EDGE('',*,*,#98,.T.);
#80=ORIENTED_EDGE('',*,*,#96,.T.);
#81=ORIENTED_EDGE('',*,*,#85,.T.);
#82=ORIENTED_EDGE('',*,*,#109,.T.);
#83=ORIENTED_EDGE('',*,*,#92,.F.);
#84=ORIENTED_EDGE('',*,*,#89,.F.);
#85=EDGE_CURVE('',#111,#112,#133,.T.);
#86=EDGE_CURVE('',#113,#111,#134,.T.);
#87=EDGE_CURVE('',#113,#114,#135,.T.);
#88=EDGE_CURVE('',#114,#112,#136,.T.);
#89=EDGE_CURVE('',#111,#115,#137,.T.);
#90=EDGE_CURVE('',#116,#115,#138,.T.);
#91=EDGE_CURVE('',#113,#116,#139,.T.);
#92=EDGE_CURVE('',#115,#117,#140,.T.);
#93=EDGE_CURVE('',#118,#117,#141,.T.);
#94=EDGE_CURVE('',#116,#118,#142,.T.);
#95=EDGE_CURVE('',#119,#119,#12,.T.);
#96=EDGE_CURVE('',#120,#120,#13,.T.);
#97=EDGE_CURVE('',#121,#121,#14,.T.);
#98=EDGE_CURVE('',#122,#122,#15,.T.);
#99=EDGE_CURVE('',#123,#123,#16,.T.);
#100=EDGE_CURVE('',#124,#124,#17,.T.);
#101=EDGE_CURVE('',#125,#125,#18,.T.);
#102=EDGE_CURVE('',#126,#126,#19,.T.);
#103=EDGE_CURVE('',#127,#127,#20,.T.);
#104=EDGE_CURVE('',#128,#128,#21,.T.);
#105=EDGE_CURVE('',#129,#129,#22,.T.);
#106=EDGE_CURVE('',#130,#130,#23,.T.);
#107=EDGE_CURVE('',#131,#131,#24,.T.);
#108=EDGE_CURVE('',#132,#132,#25,.T.);
#109=EDGE_CURVE('',#112,#117,#143,.T.);
#110=EDGE_CURVE('',#114,#118,#144,.T.);
#111=VERTEX_POINT('',#355);
#112=VERTEX_POINT('',#356);
#113=VERTEX_POINT('',#358);
#114=VERTEX_POINT('',#360);
#115=VERTEX_POINT('',#364);
#116=VERTEX_POINT('',#366);
#117=VERTEX_POINT('',#370);
#118=VERTEX_POINT('',#372);
#119=VERTEX_POINT('',#376);
#120=VERTEX_POINT('',#378);
#121=VERTEX_POINT('',#381);
#122=VERTEX_POINT('',#383);
#123=VERTEX_POINT('',#386);
#124=VERTEX_POINT('',#388);
#125=VERTEX_POINT('',#391);
#126=VERTEX_POINT('',#393);
#127=VERTEX_POINT('',#396);
#128=VERTEX_POINT('',#398);
#129=VERTEX_POINT('',#401);
#130=VERTEX_POINT('',#403);
#131=VERTEX_POINT('',#406);
#132=VERTEX_POINT('',#408);
#133=LINE('',#354,#145);
#134=LINE('',#357,#146);
#135=LINE('',#359,#147);
#136=LINE('',#361,#148);
#137=LINE('',#363,#149);
#138=LINE('',#365,#150);
#139=LINE('',#367,#151);
#140=LINE('',#369,#152);
#141=LINE('',#371,#153);
#142=LINE('',#373,#154);
#143=LINE('',#410,#155);
#144=LINE('',#411,#156);
#145=VECTOR('',#288,1.);
#146=VECTOR('',#289,1.);
#147=VECTOR('',#290,1.);
#148=VECTOR('',#291,1.);
#149=VECTOR('',#294,1.);
#150=VECTOR('',#295,1.);
#151=VECTOR('',#296,1.);
#152=VECTOR('',#299,1.);
#153=VECTOR('',#300,1.);
#154=VECTOR('',#301,1.);
#155=VECTOR('',#346,1.);
#156=VECTOR('',#347,1.);
#157=EDGE_LOOP('',(#33,#34,#35,#36));
#158=EDGE_LOOP('',(#37,#38,#39,#40));
#159=EDGE_LOOP('',(#41,#42,#43,#44));
#160=EDGE_LOOP('',(#45));
#161=EDGE_LOOP('',(#46));
#162=EDGE_LOOP('',(#47));
#163=EDGE_LOOP('',(#48));
#164=EDGE_LOOP('',(#49));
#165=EDGE_LOOP('',(#50));
#166=EDGE_LOOP('',(#51));
#167=EDGE_LOOP('',(#52));
#168=EDGE_LOOP('',(#53));
#169=EDGE_LOOP('',(#54));
#170=EDGE_LOOP('',(#55));
#171=EDGE_LOOP('',(#56));
#172=EDGE_LOOP('',(#57));
#173=EDGE_LOOP('',(#58));
#174=EDGE_LOOP('',(#59,#60,#61,#62));
#175=EDGE_LOOP('',(#63));
#176=EDGE_LOOP('',(#64));
#177=EDGE_LOOP('',(#65));
#178=EDGE_LOOP('',(#66));
#179=EDGE_LOOP('',(#67));
#180=EDGE_LOOP('',(#68));
#181=EDGE_LOOP('',(#69));
#182=EDGE_LOOP('',(#70,#71,#72,#73));
#183=EDGE_LOOP('',(#74));
#184=EDGE_LOOP('',(#75));
#185=EDGE_LOOP('',(#76));
#186=EDGE_LOOP('',(#77));
#187=EDGE_LOOP('',(#78));
#188=EDGE_LOOP('',(#79));
#189=EDGE_LOOP('',(#80));
#190=EDGE_LOOP('',(#81,#82,#83,#84));
#191=FACE_BOUND('',#157,.T.);
#192=FACE_BOUND('',#158,.T.);
#193=FACE_BOUND('',#159,.T.);
#194=FACE_BOUND('',#160,.T.);
#195=FACE_BOUND('',#161,.T.);
#196=FACE_BOUND('',#162,.T.);
#197=FACE_BOUND('',#163,.T.);
#198=FACE_BOUND('',#164,.T.);
#199=FACE_BOUND('',#165,.T.);
#200=FACE_BOUND('',#166,.T.);
#201=FACE_BOUND('',#167,.T.);
#202=FACE_BOUND('',#168,.T.);
#203=FACE_BOUND('',#169,.T.);
#204=FACE_BOUND('',#170,.T.);
#205=FACE_BOUND('',#171,.T.);
#206=FACE_BOUND('',#172,.T.);
#207=FACE_BOUND('',#173,.T.);
#208=FACE_BOUND('',#174,.T.);
#209=FACE_BOUND('',#175,.T.);
#210=FACE_BOUND('',#176,.T.);
#211=FACE_BOUND('',#177,.T.);
#212=FACE_BOUND('',#178,.T.);
#213=FACE_BOUND('',#179,.T.);
#214=FACE_BOUND('',#180,.T.);
#215=FACE_BOUND('',#181,.T.);
#216=FACE_BOUND('',#182,.T.);
#217=FACE_BOUND('',#183,.T.);
#218=FACE_BOUND('',#184,.T.);
#219=FACE_BOUND('',#185,.T.);
#220=FACE_BOUND('',#186,.T.);
#221=FACE_BOUND('',#187,.T.);
#222=FACE_BOUND('',#188,.T.);
#223=FACE_BOUND('',#189,.T.);
#224=FACE_BOUND('',#190,.T.);
#225=PLANE('',#257);
#226=PLANE('',#258);
#227=PLANE('',#259);
#228=PLANE('',#281);
#229=PLANE('',#282);
#230=PLANE('',#283);
#231=ADVANCED_FACE('',(#191),#225,.T.);
#232=ADVANCED_FACE('',(#192),#226,.F.);
#233=ADVANCED_FACE('',(#193),#227,.F.);
#234=ADVANCED_FACE('',(#194,#195),#26,.F.);
#235=ADVANCED_FACE('',(#196,#197),#27,.F.);
#236=ADVANCED_FACE('',(#198,#199),#28,.F.);
#237=ADVANCED_FACE('',(#200,#201),#29,.F.);
#238=ADVANCED_FACE('',(#202,#203),#30,.F.);
#239=ADVANCED_FACE('',(#204,#205),#31,.F.);
#240=ADVANCED_FACE('',(#206,#207),#32,.F.);
#241=ADVANCED_FACE('',(#208),#228,.T.);
#242=ADVANCED_FACE('',(#209,#210,#211,#212,#213,#214,#215,#216),#229,.T.);
#243=ADVANCED_FACE('',(#217,#218,#219,#220,#221,#222,#223,#224),#230,.F.);
#244=CLOSED_SHELL('',(#231,#232,#233,#234,#235,#236,#237,#238,#239,#240,
#241,#242,#243));
#245=STYLED_ITEM('',(#246),#253);
#246=PRESENTATION_STYLE_ASSIGNMENT((#247));
#247=SURFACE_STYLE_USAGE(.BOTH.,#248);
#248=SURFACE_SIDE_STYLE('',(#249));
#249=SURFACE_STYLE_FILL_AREA(#250);
#250=FILL_AREA_STYLE('',(#251));
#251=FILL_AREA_STYLE_COLOUR('',#252);
#252=COLOUR_RGB('',0.917647058823529,0.917647058823529,0.917647058823529);
#253=MANIFOLD_SOLID_BREP('DSCH092-E015',#244);
#254=SHAPE_DEFINITION_REPRESENTATION(#420,#255);
#255=SHAPE_REPRESENTATION('DSCH092-E015',(#256),#415);
#256=AXIS2_PLACEMENT_3D('',#352,#284,#285);
#257=AXIS2_PLACEMENT_3D('',#353,#286,#287);
#258=AXIS2_PLACEMENT_3D('',#362,#292,#293);
#259=AXIS2_PLACEMENT_3D('',#368,#297,#298);
#260=AXIS2_PLACEMENT_3D('',#374,#302,#303);
#261=AXIS2_PLACEMENT_3D('',#375,#304,#305);
#262=AXIS2_PLACEMENT_3D('',#377,#306,#307);
#263=AXIS2_PLACEMENT_3D('',#379,#308,#309);
#264=AXIS2_PLACEMENT_3D('',#380,#310,#311);
#265=AXIS2_PLACEMENT_3D('',#382,#312,#313);
#266=AXIS2_PLACEMENT_3D('',#384,#314,#315);
#267=AXIS2_PLACEMENT_3D('',#385,#316,#317);
#268=AXIS2_PLACEMENT_3D('',#387,#318,#319);
#269=AXIS2_PLACEMENT_3D('',#389,#320,#321);
#270=AXIS2_PLACEMENT_3D('',#390,#322,#323);
#271=AXIS2_PLACEMENT_3D('',#392,#324,#325);
#272=AXIS2_PLACEMENT_3D('',#394,#326,#327);
#273=AXIS2_PLACEMENT_3D('',#395,#328,#329);
#274=AXIS2_PLACEMENT_3D('',#397,#330,#331);
#275=AXIS2_PLACEMENT_3D('',#399,#332,#333);
#276=AXIS2_PLACEMENT_3D('',#400,#334,#335);
#277=AXIS2_PLACEMENT_3D('',#402,#336,#337);
#278=AXIS2_PLACEMENT_3D('',#404,#338,#339);
#279=AXIS2_PLACEMENT_3D('',#405,#340,#341);
#280=AXIS2_PLACEMENT_3D('',#407,#342,#343);
#281=AXIS2_PLACEMENT_3D('',#409,#344,#345);
#282=AXIS2_PLACEMENT_3D('',#412,#348,#349);
#283=AXIS2_PLACEMENT_3D('',#413,#350,#351);
#284=DIRECTION('',(0.,0.,1.));
#285=DIRECTION('',(1.,0.,0.));
#286=DIRECTION('',(1.21957499717155E-16,-1.,0.));
#287=DIRECTION('',(1.,1.21957499717155E-16,0.));
#288=DIRECTION('',(-1.,-1.21957499717155E-16,0.));
#289=DIRECTION('',(0.,0.,-1.));
#290=DIRECTION('',(-1.,-1.21957499717155E-16,0.));
#291=DIRECTION('',(0.,0.,-1.));
#292=DIRECTION('',(-1.,6.09787498585773E-17,0.));
#293=DIRECTION('',(-6.09787498585773E-17,-1.,0.));
#294=DIRECTION('',(6.09787498585773E-17,1.,0.));
#295=DIRECTION('',(0.,0.,-1.));
#296=DIRECTION('',(6.09787498585773E-17,1.,0.));
#297=DIRECTION('',(1.21957499717155E-16,-1.,0.));
#298=DIRECTION('',(1.,1.21957499717155E-16,0.));
#299=DIRECTION('',(-1.,-1.21957499717155E-16,0.));
#300=DIRECTION('',(0.,0.,-1.));
#301=DIRECTION('',(-1.,-1.21957499717155E-16,0.));
#302=DIRECTION('',(0.,0.,-1.));
#303=DIRECTION('',(-1.,0.,0.));
#304=DIRECTION('',(0.,0.,1.));
#305=DIRECTION('',(1.,0.,0.));
#306=DIRECTION('',(0.,0.,1.));
#307=DIRECTION('',(1.,0.,0.));
#308=DIRECTION('',(0.,0.,-1.));
#309=DIRECTION('',(-1.,0.,0.));
#310=DIRECTION('',(0.,0.,1.));
#311=DIRECTION('',(1.,0.,0.));
#312=DIRECTION('',(0.,0.,1.));
#313=DIRECTION('',(1.,0.,0.));
#314=DIRECTION('',(0.,0.,-1.));
#315=DIRECTION('',(-1.,0.,0.));
#316=DIRECTION('',(0.,0.,1.));
#317=DIRECTION('',(1.,0.,0.));
#318=DIRECTION('',(0.,0.,1.));
#319=DIRECTION('',(1.,0.,0.));
#320=DIRECTION('',(0.,0.,-1.));
#321=DIRECTION('',(-1.,0.,0.));
#322=DIRECTION('',(0.,0.,1.));
#323=DIRECTION('',(1.,0.,0.));
#324=DIRECTION('',(0.,0.,1.));
#325=DIRECTION('',(1.,0.,0.));
#326=DIRECTION('',(0.,0.,-1.));
#327=DIRECTION('',(-1.,0.,0.));
#328=DIRECTION('',(0.,0.,-1.));
#329=DIRECTION('',(1.,0.,0.));
#330=DIRECTION('',(0.,0.,-1.));
#331=DIRECTION('',(1.,0.,0.));
#332=DIRECTION('',(0.,0.,-1.));
#333=DIRECTION('',(-1.,0.,0.));
#334=DIRECTION('',(0.,0.,-1.));
#335=DIRECTION('',(1.,0.,0.));
#336=DIRECTION('',(0.,0.,-1.));
#337=DIRECTION('',(1.,0.,0.));
#338=DIRECTION('',(0.,0.,-1.));
#339=DIRECTION('',(-1.,0.,0.));
#340=DIRECTION('',(0.,0.,-1.));
#341=DIRECTION('',(1.,0.,0.));
#342=DIRECTION('',(0.,0.,-1.));
#343=DIRECTION('',(1.,0.,0.));
#344=DIRECTION('',(-1.,6.09787498585773E-17,0.));
#345=DIRECTION('',(-6.09787498585773E-17,-1.,0.));
#346=DIRECTION('',(6.09787498585773E-17,1.,0.));
#347=DIRECTION('',(6.09787498585773E-17,1.,0.));
#348=DIRECTION('',(0.,0.,1.));
#349=DIRECTION('',(1.,0.,0.));
#350=DIRECTION('',(0.,0.,1.));
#351=DIRECTION('',(1.,0.,0.));
#352=CARTESIAN_POINT('',(0.,0.,0.));
#353=CARTESIAN_POINT('',(-8.67361737988404E-18,-0.028448,0.000381));
#354=CARTESIAN_POINT('',(-8.67361737988404E-18,-0.028448,0.));
#355=CARTESIAN_POINT('',(0.028448,-0.028448,0.));
#356=CARTESIAN_POINT('',(-0.028448,-0.028448,0.));
#357=CARTESIAN_POINT('',(0.028448,-0.028448,0.000381));
#358=CARTESIAN_POINT('',(0.028448,-0.028448,0.000381));
#359=CARTESIAN_POINT('',(-8.67361737988404E-18,-0.028448,0.000381));
#360=CARTESIAN_POINT('',(-0.028448,-0.028448,0.000381));
#361=CARTESIAN_POINT('',(-0.028448,-0.028448,0.000381));
#362=CARTESIAN_POINT('',(0.028448,3.46944695195361E-18,0.000381));
#363=CARTESIAN_POINT('',(0.028448,3.46944695195361E-18,0.));
#364=CARTESIAN_POINT('',(0.028448,0.028448,0.));
#365=CARTESIAN_POINT('',(0.028448,0.028448,0.000381));
#366=CARTESIAN_POINT('',(0.028448,0.028448,0.000381));
#367=CARTESIAN_POINT('',(0.028448,3.46944695195361E-18,0.000381));
#368=CARTESIAN_POINT('',(3.46944695195361E-18,0.028448,0.000381));
#369=CARTESIAN_POINT('',(3.46944695195361E-18,0.028448,0.));
#370=CARTESIAN_POINT('',(-0.028448,0.028448,0.));
#371=CARTESIAN_POINT('',(-0.028448,0.028448,0.000381));
#372=CARTESIAN_POINT('',(-0.028448,0.028448,0.000381));
#373=CARTESIAN_POINT('',(3.46944695195361E-18,0.028448,0.000381));
#374=CARTESIAN_POINT('',(0.,5.83238038093927E-19,0.000381));
#375=CARTESIAN_POINT('',(0.,5.83238038093927E-19,0.000381));
#376=CARTESIAN_POINT('',(0.009525,5.83238038093927E-19,0.000381));
#377=CARTESIAN_POINT('',(0.,5.83238038093927E-19,0.));
#378=CARTESIAN_POINT('',(0.009525,5.83238038093927E-19,0.));
#379=CARTESIAN_POINT('',(0.,0.01905,0.000381));
#380=CARTESIAN_POINT('',(0.,0.01905,0.000381));
#381=CARTESIAN_POINT('',(0.007112,0.01905,0.000381));
#382=CARTESIAN_POINT('',(0.,0.01905,0.));
#383=CARTESIAN_POINT('',(0.007112,0.01905,0.));
#384=CARTESIAN_POINT('',(-0.01905,0.01905,0.000381));
#385=CARTESIAN_POINT('',(-0.01905,0.01905,0.000381));
#386=CARTESIAN_POINT('',(-0.011938,0.01905,0.000381));
#387=CARTESIAN_POINT('',(-0.01905,0.01905,0.));
#388=CARTESIAN_POINT('',(-0.011938,0.01905,0.));
#389=CARTESIAN_POINT('',(0.01905,0.01905,0.000381));
#390=CARTESIAN_POINT('',(0.01905,0.01905,0.000381));
#391=CARTESIAN_POINT('',(0.026162,0.01905,0.000381));
#392=CARTESIAN_POINT('',(0.01905,0.01905,0.));
#393=CARTESIAN_POINT('',(0.026162,0.01905,0.));
#394=CARTESIAN_POINT('',(-0.01905,-0.01905,0.000381));
#395=CARTESIAN_POINT('',(-0.01905,-0.01905,0.000381));
#396=CARTESIAN_POINT('',(-0.011938,-0.01905,0.000381));
#397=CARTESIAN_POINT('',(-0.01905,-0.01905,0.));
#398=CARTESIAN_POINT('',(-0.011938,-0.01905,0.));
#399=CARTESIAN_POINT('',(0.,-0.01905,0.000381));
#400=CARTESIAN_POINT('',(0.,-0.01905,0.000381));
#401=CARTESIAN_POINT('',(0.007112,-0.01905,0.000381));
#402=CARTESIAN_POINT('',(0.,-0.01905,0.));
#403=CARTESIAN_POINT('',(0.007112,-0.01905,0.));
#404=CARTESIAN_POINT('',(0.01905,-0.01905,0.000381));
#405=CARTESIAN_POINT('',(0.01905,-0.01905,0.000381));
#406=CARTESIAN_POINT('',(0.026162,-0.01905,0.000381));
#407=CARTESIAN_POINT('',(0.01905,-0.01905,0.));
#408=CARTESIAN_POINT('',(0.026162,-0.01905,0.));
#409=CARTESIAN_POINT('',(-0.028448,-3.46944695195361E-18,0.000381));
#410=CARTESIAN_POINT('',(-0.028448,-3.46944695195361E-18,0.));
#411=CARTESIAN_POINT('',(-0.028448,-3.46944695195361E-18,0.000381));
#412=CARTESIAN_POINT('',(-3.46944695195361E-18,0.,0.000381));
#413=CARTESIAN_POINT('',(-3.46944695195361E-18,0.,0.));
#414=MECHANICAL_DESIGN_GEOMETRIC_PRESENTATION_REPRESENTATION('',(#245),
#415);
#415=(
GEOMETRIC_REPRESENTATION_CONTEXT(3)
GLOBAL_UNCERTAINTY_ASSIGNED_CONTEXT((#416))
GLOBAL_UNIT_ASSIGNED_CONTEXT((#419,#418,#417))
REPRESENTATION_CONTEXT('DSCH092-E015','TOP_LEVEL_ASSEMBLY_PART')
);
#416=UNCERTAINTY_MEASURE_WITH_UNIT(LENGTH_MEASURE(5.E-6),#419,
'DISTANCE_ACCURACY_VALUE','Maximum Tolerance applied to model');
#417=(
NAMED_UNIT(*)
SI_UNIT($,.STERADIAN.)
SOLID_ANGLE_UNIT()
);
#418=(
NAMED_UNIT(*)
PLANE_ANGLE_UNIT()
SI_UNIT($,.RADIAN.)
);
#419=(
LENGTH_UNIT()
NAMED_UNIT(*)
SI_UNIT($,.METRE.)
);
#420=PRODUCT_DEFINITION_SHAPE('','',#421);
#421=PRODUCT_DEFINITION('','',#423,#422);
#422=PRODUCT_DEFINITION_CONTEXT('',#429,'design');
#423=PRODUCT_DEFINITION_FORMATION_WITH_SPECIFIED_SOURCE('','',#425,
 .NOT_KNOWN.);
#424=PRODUCT_RELATED_PRODUCT_CATEGORY('','',(#425));
#425=PRODUCT('DSCH092-E015','DSCH092-E015','DSCH092-E015',(#427));
#426=PRODUCT_CATEGORY('','');
#427=PRODUCT_CONTEXT('',#429,'mechanical');
#428=APPLICATION_PROTOCOL_DEFINITION('international standard',
'ap242_managed_model_based_3d_engineering',2011,#429);
#429=APPLICATION_CONTEXT('managed model based 3d engineering');
ENDSEC;
END-ISO-10303-21;
