ISO-10303-21;
HEADER;
/* Generated by software containing ST-Developer
 * from STEP Tools, Inc. (www.steptools.com) 
 */
/* OPTION: using custom renumber hook */

FILE_DESCRIPTION(
/* description */ ('STEP AP242',
'CAx-IF Rec.Pracs.---Representation and Presentation of Product Manufa
cturing Information (PMI)---4.0---2014-10-13',
'CAx-IF Rec.Pracs.---3D Tessellated Geometry---0.4---2014-09-14','2;1'),

/* implementation_level */ '2;1');

FILE_NAME(
/* name */ '627cf70b8560582d466ba953',
/* time_stamp */ '2022-05-12T12:01:15+00:00',
/* author */ (''),
/* organization */ (''),
/* preprocessor_version */ 'ST-DEVELOPER v18.101',
/* originating_system */ '  ',
/* authorisation */ '  ');

FILE_SCHEMA (('AP242_MANAGED_MODEL_BASED_3D_ENGINEERING_MIM_LF { 1 0 10303 442 1 1 4 }'));
ENDSEC;

DATA;
#10=SHAPE_REPRESENTATION_RELATIONSHIP('','',#275,#11);
#11=ADVANCED_BREP_SHAPE_REPRESENTATION('',(#273),#449);
#12=CIRCLE('',#281,0.005588);
#13=CIRCLE('',#282,0.005588);
#14=CIRCLE('',#284,0.005588);
#15=CIRCLE('',#285,0.005588);
#16=CIRCLE('',#287,0.005588);
#17=CIRCLE('',#288,0.005588);
#18=CIRCLE('',#290,0.005588);
#19=CIRCLE('',#291,0.005588);
#20=CIRCLE('',#293,0.005588);
#21=CIRCLE('',#294,0.005588);
#22=CIRCLE('',#296,0.005588);
#23=CIRCLE('',#297,0.005588);
#24=CIRCLE('',#299,0.005588);
#25=CIRCLE('',#300,0.005588);
#26=CIRCLE('',#302,0.005588);
#27=CIRCLE('',#303,0.005588);
#28=CYLINDRICAL_SURFACE('',#280,0.005588);
#29=CYLINDRICAL_SURFACE('',#283,0.005588);
#30=CYLINDRICAL_SURFACE('',#286,0.005588);
#31=CYLINDRICAL_SURFACE('',#289,0.005588);
#32=CYLINDRICAL_SURFACE('',#292,0.005588);
#33=CYLINDRICAL_SURFACE('',#295,0.005588);
#34=CYLINDRICAL_SURFACE('',#298,0.005588);
#35=CYLINDRICAL_SURFACE('',#301,0.005588);
#36=ORIENTED_EDGE('',*,*,#92,.F.);
#37=ORIENTED_EDGE('',*,*,#93,.F.);
#38=ORIENTED_EDGE('',*,*,#94,.T.);
#39=ORIENTED_EDGE('',*,*,#95,.T.);
#40=ORIENTED_EDGE('',*,*,#96,.T.);
#41=ORIENTED_EDGE('',*,*,#97,.F.);
#42=ORIENTED_EDGE('',*,*,#98,.F.);
#43=ORIENTED_EDGE('',*,*,#93,.T.);
#44=ORIENTED_EDGE('',*,*,#99,.T.);
#45=ORIENTED_EDGE('',*,*,#100,.F.);
#46=ORIENTED_EDGE('',*,*,#101,.F.);
#47=ORIENTED_EDGE('',*,*,#97,.T.);
#48=ORIENTED_EDGE('',*,*,#102,.T.);
#49=ORIENTED_EDGE('',*,*,#103,.F.);
#50=ORIENTED_EDGE('',*,*,#104,.T.);
#51=ORIENTED_EDGE('',*,*,#105,.F.);
#52=ORIENTED_EDGE('',*,*,#106,.T.);
#53=ORIENTED_EDGE('',*,*,#107,.F.);
#54=ORIENTED_EDGE('',*,*,#108,.T.);
#55=ORIENTED_EDGE('',*,*,#109,.F.);
#56=ORIENTED_EDGE('',*,*,#110,.F.);
#57=ORIENTED_EDGE('',*,*,#111,.T.);
#58=ORIENTED_EDGE('',*,*,#112,.T.);
#59=ORIENTED_EDGE('',*,*,#113,.F.);
#60=ORIENTED_EDGE('',*,*,#114,.F.);
#61=ORIENTED_EDGE('',*,*,#115,.T.);
#62=ORIENTED_EDGE('',*,*,#116,.F.);
#63=ORIENTED_EDGE('',*,*,#117,.T.);
#64=ORIENTED_EDGE('',*,*,#118,.F.);
#65=ORIENTED_EDGE('',*,*,#95,.F.);
#66=ORIENTED_EDGE('',*,*,#119,.T.);
#67=ORIENTED_EDGE('',*,*,#100,.T.);
#68=ORIENTED_EDGE('',*,*,#116,.T.);
#69=ORIENTED_EDGE('',*,*,#114,.T.);
#70=ORIENTED_EDGE('',*,*,#112,.F.);
#71=ORIENTED_EDGE('',*,*,#110,.T.);
#72=ORIENTED_EDGE('',*,*,#108,.F.);
#73=ORIENTED_EDGE('',*,*,#106,.F.);
#74=ORIENTED_EDGE('',*,*,#104,.F.);
#75=ORIENTED_EDGE('',*,*,#102,.F.);
#76=ORIENTED_EDGE('',*,*,#94,.F.);
#77=ORIENTED_EDGE('',*,*,#98,.T.);
#78=ORIENTED_EDGE('',*,*,#101,.T.);
#79=ORIENTED_EDGE('',*,*,#119,.F.);
#80=ORIENTED_EDGE('',*,*,#117,.F.);
#81=ORIENTED_EDGE('',*,*,#115,.F.);
#82=ORIENTED_EDGE('',*,*,#113,.T.);
#83=ORIENTED_EDGE('',*,*,#111,.F.);
#84=ORIENTED_EDGE('',*,*,#109,.T.);
#85=ORIENTED_EDGE('',*,*,#107,.T.);
#86=ORIENTED_EDGE('',*,*,#105,.T.);
#87=ORIENTED_EDGE('',*,*,#103,.T.);
#88=ORIENTED_EDGE('',*,*,#92,.T.);
#89=ORIENTED_EDGE('',*,*,#118,.T.);
#90=ORIENTED_EDGE('',*,*,#99,.F.);
#91=ORIENTED_EDGE('',*,*,#96,.F.);
#92=EDGE_CURVE('',#120,#121,#144,.T.);
#93=EDGE_CURVE('',#122,#120,#145,.T.);
#94=EDGE_CURVE('',#122,#123,#146,.T.);
#95=EDGE_CURVE('',#123,#121,#147,.T.);
#96=EDGE_CURVE('',#120,#124,#148,.T.);
#97=EDGE_CURVE('',#125,#124,#149,.T.);
#98=EDGE_CURVE('',#122,#125,#150,.T.);
#99=EDGE_CURVE('',#124,#126,#151,.T.);
#100=EDGE_CURVE('',#127,#126,#152,.T.);
#101=EDGE_CURVE('',#125,#127,#153,.T.);
#102=EDGE_CURVE('',#128,#128,#12,.T.);
#103=EDGE_CURVE('',#129,#129,#13,.T.);
#104=EDGE_CURVE('',#130,#130,#14,.T.);
#105=EDGE_CURVE('',#131,#131,#15,.T.);
#106=EDGE_CURVE('',#132,#132,#16,.T.);
#107=EDGE_CURVE('',#133,#133,#17,.T.);
#108=EDGE_CURVE('',#134,#134,#18,.T.);
#109=EDGE_CURVE('',#135,#135,#19,.T.);
#110=EDGE_CURVE('',#136,#136,#20,.T.);
#111=EDGE_CURVE('',#137,#137,#21,.T.);
#112=EDGE_CURVE('',#138,#138,#22,.T.);
#113=EDGE_CURVE('',#139,#139,#23,.T.);
#114=EDGE_CURVE('',#140,#140,#24,.T.);
#115=EDGE_CURVE('',#141,#141,#25,.T.);
#116=EDGE_CURVE('',#142,#142,#26,.T.);
#117=EDGE_CURVE('',#143,#143,#27,.T.);
#118=EDGE_CURVE('',#121,#126,#154,.T.);
#119=EDGE_CURVE('',#123,#127,#155,.T.);
#120=VERTEX_POINT('',#384);
#121=VERTEX_POINT('',#385);
#122=VERTEX_POINT('',#387);
#123=VERTEX_POINT('',#389);
#124=VERTEX_POINT('',#393);
#125=VERTEX_POINT('',#395);
#126=VERTEX_POINT('',#399);
#127=VERTEX_POINT('',#401);
#128=VERTEX_POINT('',#405);
#129=VERTEX_POINT('',#407);
#130=VERTEX_POINT('',#410);
#131=VERTEX_POINT('',#412);
#132=VERTEX_POINT('',#415);
#133=VERTEX_POINT('',#417);
#134=VERTEX_POINT('',#420);
#135=VERTEX_POINT('',#422);
#136=VERTEX_POINT('',#425);
#137=VERTEX_POINT('',#427);
#138=VERTEX_POINT('',#430);
#139=VERTEX_POINT('',#432);
#140=VERTEX_POINT('',#435);
#141=VERTEX_POINT('',#437);
#142=VERTEX_POINT('',#440);
#143=VERTEX_POINT('',#442);
#144=LINE('',#383,#156);
#145=LINE('',#386,#157);
#146=LINE('',#388,#158);
#147=LINE('',#390,#159);
#148=LINE('',#392,#160);
#149=LINE('',#394,#161);
#150=LINE('',#396,#162);
#151=LINE('',#398,#163);
#152=LINE('',#400,#164);
#153=LINE('',#402,#165);
#154=LINE('',#444,#166);
#155=LINE('',#445,#167);
#156=VECTOR('',#311,1.);
#157=VECTOR('',#312,1.);
#158=VECTOR('',#313,1.);
#159=VECTOR('',#314,1.);
#160=VECTOR('',#317,1.);
#161=VECTOR('',#318,1.);
#162=VECTOR('',#319,1.);
#163=VECTOR('',#322,1.);
#164=VECTOR('',#323,1.);
#165=VECTOR('',#324,1.);
#166=VECTOR('',#375,1.);
#167=VECTOR('',#376,1.);
#168=EDGE_LOOP('',(#36,#37,#38,#39));
#169=EDGE_LOOP('',(#40,#41,#42,#43));
#170=EDGE_LOOP('',(#44,#45,#46,#47));
#171=EDGE_LOOP('',(#48));
#172=EDGE_LOOP('',(#49));
#173=EDGE_LOOP('',(#50));
#174=EDGE_LOOP('',(#51));
#175=EDGE_LOOP('',(#52));
#176=EDGE_LOOP('',(#53));
#177=EDGE_LOOP('',(#54));
#178=EDGE_LOOP('',(#55));
#179=EDGE_LOOP('',(#56));
#180=EDGE_LOOP('',(#57));
#181=EDGE_LOOP('',(#58));
#182=EDGE_LOOP('',(#59));
#183=EDGE_LOOP('',(#60));
#184=EDGE_LOOP('',(#61));
#185=EDGE_LOOP('',(#62));
#186=EDGE_LOOP('',(#63));
#187=EDGE_LOOP('',(#64,#65,#66,#67));
#188=EDGE_LOOP('',(#68));
#189=EDGE_LOOP('',(#69));
#190=EDGE_LOOP('',(#70));
#191=EDGE_LOOP('',(#71));
#192=EDGE_LOOP('',(#72));
#193=EDGE_LOOP('',(#73));
#194=EDGE_LOOP('',(#74));
#195=EDGE_LOOP('',(#75));
#196=EDGE_LOOP('',(#76,#77,#78,#79));
#197=EDGE_LOOP('',(#80));
#198=EDGE_LOOP('',(#81));
#199=EDGE_LOOP('',(#82));
#200=EDGE_LOOP('',(#83));
#201=EDGE_LOOP('',(#84));
#202=EDGE_LOOP('',(#85));
#203=EDGE_LOOP('',(#86));
#204=EDGE_LOOP('',(#87));
#205=EDGE_LOOP('',(#88,#89,#90,#91));
#206=FACE_BOUND('',#168,.T.);
#207=FACE_BOUND('',#169,.T.);
#208=FACE_BOUND('',#170,.T.);
#209=FACE_BOUND('',#171,.T.);
#210=FACE_BOUND('',#172,.T.);
#211=FACE_BOUND('',#173,.T.);
#212=FACE_BOUND('',#174,.T.);
#213=FACE_BOUND('',#175,.T.);
#214=FACE_BOUND('',#176,.T.);
#215=FACE_BOUND('',#177,.T.);
#216=FACE_BOUND('',#178,.T.);
#217=FACE_BOUND('',#179,.T.);
#218=FACE_BOUND('',#180,.T.);
#219=FACE_BOUND('',#181,.T.);
#220=FACE_BOUND('',#182,.T.);
#221=FACE_BOUND('',#183,.T.);
#222=FACE_BOUND('',#184,.T.);
#223=FACE_BOUND('',#185,.T.);
#224=FACE_BOUND('',#186,.T.);
#225=FACE_BOUND('',#187,.T.);
#226=FACE_BOUND('',#188,.T.);
#227=FACE_BOUND('',#189,.T.);
#228=FACE_BOUND('',#190,.T.);
#229=FACE_BOUND('',#191,.T.);
#230=FACE_BOUND('',#192,.T.);
#231=FACE_BOUND('',#193,.T.);
#232=FACE_BOUND('',#194,.T.);
#233=FACE_BOUND('',#195,.T.);
#234=FACE_BOUND('',#196,.T.);
#235=FACE_BOUND('',#197,.T.);
#236=FACE_BOUND('',#198,.T.);
#237=FACE_BOUND('',#199,.T.);
#238=FACE_BOUND('',#200,.T.);
#239=FACE_BOUND('',#201,.T.);
#240=FACE_BOUND('',#202,.T.);
#241=FACE_BOUND('',#203,.T.);
#242=FACE_BOUND('',#204,.T.);
#243=FACE_BOUND('',#205,.T.);
#244=PLANE('',#277);
#245=PLANE('',#278);
#246=PLANE('',#279);
#247=PLANE('',#304);
#248=PLANE('',#305);
#249=PLANE('',#306);
#250=ADVANCED_FACE('',(#206),#244,.T.);
#251=ADVANCED_FACE('',(#207),#245,.F.);
#252=ADVANCED_FACE('',(#208),#246,.F.);
#253=ADVANCED_FACE('',(#209,#210),#28,.F.);
#254=ADVANCED_FACE('',(#211,#212),#29,.F.);
#255=ADVANCED_FACE('',(#213,#214),#30,.F.);
#256=ADVANCED_FACE('',(#215,#216),#31,.F.);
#257=ADVANCED_FACE('',(#217,#218),#32,.F.);
#258=ADVANCED_FACE('',(#219,#220),#33,.F.);
#259=ADVANCED_FACE('',(#221,#222),#34,.F.);
#260=ADVANCED_FACE('',(#223,#224),#35,.F.);
#261=ADVANCED_FACE('',(#225),#247,.T.);
#262=ADVANCED_FACE('',(#226,#227,#228,#229,#230,#231,#232,#233,#234),#248,
 .T.);
#263=ADVANCED_FACE('',(#235,#236,#237,#238,#239,#240,#241,#242,#243),#249,
 .F.);
#264=CLOSED_SHELL('',(#250,#251,#252,#253,#254,#255,#256,#257,#258,#259,
#260,#261,#262,#263));
#265=STYLED_ITEM('',(#266),#273);
#266=PRESENTATION_STYLE_ASSIGNMENT((#267));
#267=SURFACE_STYLE_USAGE(.BOTH.,#268);
#268=SURFACE_SIDE_STYLE('',(#269));
#269=SURFACE_STYLE_FILL_AREA(#270);
#270=FILL_AREA_STYLE('',(#271));
#271=FILL_AREA_STYLE_COLOUR('',#272);
#272=COLOUR_RGB('',0.917647058823529,0.917647058823529,0.917647058823529);
#273=MANIFOLD_SOLID_BREP('DSCH099-E015',#264);
#274=SHAPE_DEFINITION_REPRESENTATION(#454,#275);
#275=SHAPE_REPRESENTATION('DSCH099-E015',(#276),#449);
#276=AXIS2_PLACEMENT_3D('',#381,#307,#308);
#277=AXIS2_PLACEMENT_3D('',#382,#309,#310);
#278=AXIS2_PLACEMENT_3D('',#391,#315,#316);
#279=AXIS2_PLACEMENT_3D('',#397,#320,#321);
#280=AXIS2_PLACEMENT_3D('',#403,#325,#326);
#281=AXIS2_PLACEMENT_3D('',#404,#327,#328);
#282=AXIS2_PLACEMENT_3D('',#406,#329,#330);
#283=AXIS2_PLACEMENT_3D('',#408,#331,#332);
#284=AXIS2_PLACEMENT_3D('',#409,#333,#334);
#285=AXIS2_PLACEMENT_3D('',#411,#335,#336);
#286=AXIS2_PLACEMENT_3D('',#413,#337,#338);
#287=AXIS2_PLACEMENT_3D('',#414,#339,#340);
#288=AXIS2_PLACEMENT_3D('',#416,#341,#342);
#289=AXIS2_PLACEMENT_3D('',#418,#343,#344);
#290=AXIS2_PLACEMENT_3D('',#419,#345,#346);
#291=AXIS2_PLACEMENT_3D('',#421,#347,#348);
#292=AXIS2_PLACEMENT_3D('',#423,#349,#350);
#293=AXIS2_PLACEMENT_3D('',#424,#351,#352);
#294=AXIS2_PLACEMENT_3D('',#426,#353,#354);
#295=AXIS2_PLACEMENT_3D('',#428,#355,#356);
#296=AXIS2_PLACEMENT_3D('',#429,#357,#358);
#297=AXIS2_PLACEMENT_3D('',#431,#359,#360);
#298=AXIS2_PLACEMENT_3D('',#433,#361,#362);
#299=AXIS2_PLACEMENT_3D('',#434,#363,#364);
#300=AXIS2_PLACEMENT_3D('',#436,#365,#366);
#301=AXIS2_PLACEMENT_3D('',#438,#367,#368);
#302=AXIS2_PLACEMENT_3D('',#439,#369,#370);
#303=AXIS2_PLACEMENT_3D('',#441,#371,#372);
#304=AXIS2_PLACEMENT_3D('',#443,#373,#374);
#305=AXIS2_PLACEMENT_3D('',#446,#377,#378);
#306=AXIS2_PLACEMENT_3D('',#447,#379,#380);
#307=DIRECTION('',(0.,0.,1.));
#308=DIRECTION('',(1.,0.,0.));
#309=DIRECTION('',(9.10615997888088E-17,-1.,0.));
#310=DIRECTION('',(1.,9.10615997888088E-17,0.));
#311=DIRECTION('',(-1.,-9.10615997888088E-17,0.));
#312=DIRECTION('',(0.,0.,-1.));
#313=DIRECTION('',(-1.,-9.10615997888088E-17,0.));
#314=DIRECTION('',(0.,0.,-1.));
#315=DIRECTION('',(-1.,0.,0.));
#316=DIRECTION('',(0.,0.,1.));
#317=DIRECTION('',(0.,1.,0.));
#318=DIRECTION('',(0.,0.,-1.));
#319=DIRECTION('',(0.,1.,0.));
#320=DIRECTION('',(1.82123199577617E-16,-1.,0.));
#321=DIRECTION('',(1.,1.82123199577617E-16,0.));
#322=DIRECTION('',(-1.,-1.82123199577617E-16,0.));
#323=DIRECTION('',(0.,0.,-1.));
#324=DIRECTION('',(-1.,-1.82123199577617E-16,0.));
#325=DIRECTION('',(0.,0.,-1.));
#326=DIRECTION('',(-1.,0.,0.));
#327=DIRECTION('',(0.,0.,1.));
#328=DIRECTION('',(1.,0.,0.));
#329=DIRECTION('',(0.,0.,1.));
#330=DIRECTION('',(1.,0.,0.));
#331=DIRECTION('',(0.,0.,-1.));
#332=DIRECTION('',(-1.,0.,0.));
#333=DIRECTION('',(0.,0.,1.));
#334=DIRECTION('',(1.,0.,0.));
#335=DIRECTION('',(0.,0.,1.));
#336=DIRECTION('',(1.,0.,0.));
#337=DIRECTION('',(0.,0.,-1.));
#338=DIRECTION('',(-1.,0.,0.));
#339=DIRECTION('',(0.,0.,1.));
#340=DIRECTION('',(1.,0.,0.));
#341=DIRECTION('',(0.,0.,1.));
#342=DIRECTION('',(1.,0.,0.));
#343=DIRECTION('',(0.,0.,-1.));
#344=DIRECTION('',(-1.,0.,0.));
#345=DIRECTION('',(0.,0.,1.));
#346=DIRECTION('',(1.,0.,0.));
#347=DIRECTION('',(0.,0.,1.));
#348=DIRECTION('',(1.,0.,0.));
#349=DIRECTION('',(0.,0.,-1.));
#350=DIRECTION('',(-1.,0.,0.));
#351=DIRECTION('',(0.,0.,-1.));
#352=DIRECTION('',(1.,0.,0.));
#353=DIRECTION('',(0.,0.,-1.));
#354=DIRECTION('',(1.,0.,0.));
#355=DIRECTION('',(0.,0.,-1.));
#356=DIRECTION('',(-1.,0.,0.));
#357=DIRECTION('',(0.,0.,1.));
#358=DIRECTION('',(1.,0.,0.));
#359=DIRECTION('',(0.,0.,1.));
#360=DIRECTION('',(1.,0.,0.));
#361=DIRECTION('',(0.,0.,-1.));
#362=DIRECTION('',(-1.,0.,0.));
#363=DIRECTION('',(0.,0.,-1.));
#364=DIRECTION('',(1.,0.,0.));
#365=DIRECTION('',(0.,0.,-1.));
#366=DIRECTION('',(1.,0.,0.));
#367=DIRECTION('',(0.,0.,-1.));
#368=DIRECTION('',(-1.,0.,0.));
#369=DIRECTION('',(0.,0.,-1.));
#370=DIRECTION('',(1.,0.,0.));
#371=DIRECTION('',(0.,0.,-1.));
#372=DIRECTION('',(1.,0.,0.));
#373=DIRECTION('',(-1.,0.,0.));
#374=DIRECTION('',(0.,0.,1.));
#375=DIRECTION('',(0.,1.,0.));
#376=DIRECTION('',(0.,1.,0.));
#377=DIRECTION('',(0.,0.,1.));
#378=DIRECTION('',(1.,0.,0.));
#379=DIRECTION('',(0.,0.,1.));
#380=DIRECTION('',(1.,0.,0.));
#381=CARTESIAN_POINT('',(0.,0.,0.));
#382=CARTESIAN_POINT('',(6.93889390390723E-18,-0.03175,0.000381));
#383=CARTESIAN_POINT('',(6.93889390390723E-18,-0.03175,0.));
#384=CARTESIAN_POINT('',(0.0381,-0.03175,0.));
#385=CARTESIAN_POINT('',(-0.0381,-0.03175,0.));
#386=CARTESIAN_POINT('',(0.0381,-0.03175,0.000381));
#387=CARTESIAN_POINT('',(0.0381,-0.03175,0.000381));
#388=CARTESIAN_POINT('',(6.93889390390723E-18,-0.03175,0.000381));
#389=CARTESIAN_POINT('',(-0.0381,-0.03175,0.000381));
#390=CARTESIAN_POINT('',(-0.0381,-0.03175,0.000381));
#391=CARTESIAN_POINT('',(0.0381,0.,0.000381));
#392=CARTESIAN_POINT('',(0.0381,0.,0.));
#393=CARTESIAN_POINT('',(0.0381,0.03175,0.));
#394=CARTESIAN_POINT('',(0.0381,0.03175,0.000381));
#395=CARTESIAN_POINT('',(0.0381,0.03175,0.000381));
#396=CARTESIAN_POINT('',(0.0381,0.,0.000381));
#397=CARTESIAN_POINT('',(6.93889390390723E-18,0.03175,0.000381));
#398=CARTESIAN_POINT('',(6.93889390390723E-18,0.03175,0.));
#399=CARTESIAN_POINT('',(-0.0381,0.03175,0.));
#400=CARTESIAN_POINT('',(-0.0381,0.03175,0.000381));
#401=CARTESIAN_POINT('',(-0.0381,0.03175,0.000381));
#402=CARTESIAN_POINT('',(6.93889390390723E-18,0.03175,0.000381));
#403=CARTESIAN_POINT('',(-0.028448,0.022098,0.000381));
#404=CARTESIAN_POINT('',(-0.028448,0.022098,0.000381));
#405=CARTESIAN_POINT('',(-0.02286,0.022098,0.000381));
#406=CARTESIAN_POINT('',(-0.028448,0.022098,0.));
#407=CARTESIAN_POINT('',(-0.02286,0.022098,0.));
#408=CARTESIAN_POINT('',(-0.012446,0.022098,0.000381));
#409=CARTESIAN_POINT('',(-0.012446,0.022098,0.000381));
#410=CARTESIAN_POINT('',(-0.006858,0.022098,0.000381));
#411=CARTESIAN_POINT('',(-0.012446,0.022098,0.));
#412=CARTESIAN_POINT('',(-0.006858,0.022098,0.));
#413=CARTESIAN_POINT('',(-0.028448,0.006096,0.000381));
#414=CARTESIAN_POINT('',(-0.028448,0.006096,0.000381));
#415=CARTESIAN_POINT('',(-0.02286,0.006096,0.000381));
#416=CARTESIAN_POINT('',(-0.028448,0.006096,0.));
#417=CARTESIAN_POINT('',(-0.02286,0.006096,0.));
#418=CARTESIAN_POINT('',(-0.028448,-0.022098,0.000381));
#419=CARTESIAN_POINT('',(-0.028448,-0.022098,0.000381));
#420=CARTESIAN_POINT('',(-0.02286,-0.022098,0.000381));
#421=CARTESIAN_POINT('',(-0.028448,-0.022098,0.));
#422=CARTESIAN_POINT('',(-0.02286,-0.022098,0.));
#423=CARTESIAN_POINT('',(0.028448,0.006096,0.000381));
#424=CARTESIAN_POINT('',(0.028448,0.006096,0.000381));
#425=CARTESIAN_POINT('',(0.034036,0.006096,0.000381));
#426=CARTESIAN_POINT('',(0.028448,0.006096,0.));
#427=CARTESIAN_POINT('',(0.034036,0.006096,0.));
#428=CARTESIAN_POINT('',(0.012446,-0.022098,0.000381));
#429=CARTESIAN_POINT('',(0.012446,-0.022098,0.000381));
#430=CARTESIAN_POINT('',(0.018034,-0.022098,0.000381));
#431=CARTESIAN_POINT('',(0.012446,-0.022098,0.));
#432=CARTESIAN_POINT('',(0.018034,-0.022098,0.));
#433=CARTESIAN_POINT('',(0.028448,-0.022098,0.000381));
#434=CARTESIAN_POINT('',(0.028448,-0.022098,0.000381));
#435=CARTESIAN_POINT('',(0.034036,-0.022098,0.000381));
#436=CARTESIAN_POINT('',(0.028448,-0.022098,0.));
#437=CARTESIAN_POINT('',(0.034036,-0.022098,0.));
#438=CARTESIAN_POINT('',(0.028448,0.022098,0.000381));
#439=CARTESIAN_POINT('',(0.028448,0.022098,0.000381));
#440=CARTESIAN_POINT('',(0.034036,0.022098,0.000381));
#441=CARTESIAN_POINT('',(0.028448,0.022098,0.));
#442=CARTESIAN_POINT('',(0.034036,0.022098,0.));
#443=CARTESIAN_POINT('',(-0.0381,-6.93889390390723E-18,0.000381));
#444=CARTESIAN_POINT('',(-0.0381,-6.93889390390723E-18,0.));
#445=CARTESIAN_POINT('',(-0.0381,-6.93889390390723E-18,0.000381));
#446=CARTESIAN_POINT('',(6.93889390390723E-18,0.,0.000381));
#447=CARTESIAN_POINT('',(6.93889390390723E-18,0.,0.));
#448=MECHANICAL_DESIGN_GEOMETRIC_PRESENTATION_REPRESENTATION('',(#265),
#449);
#449=(
GEOMETRIC_REPRESENTATION_CONTEXT(3)
GLOBAL_UNCERTAINTY_ASSIGNED_CONTEXT((#450))
GLOBAL_UNIT_ASSIGNED_CONTEXT((#453,#452,#451))
REPRESENTATION_CONTEXT('DSCH099-E015','TOP_LEVEL_ASSEMBLY_PART')
);
#450=UNCERTAINTY_MEASURE_WITH_UNIT(LENGTH_MEASURE(5.E-6),#453,
'DISTANCE_ACCURACY_VALUE','Maximum Tolerance applied to model');
#451=(
NAMED_UNIT(*)
SI_UNIT($,.STERADIAN.)
SOLID_ANGLE_UNIT()
);
#452=(
NAMED_UNIT(*)
PLANE_ANGLE_UNIT()
SI_UNIT($,.RADIAN.)
);
#453=(
LENGTH_UNIT()
NAMED_UNIT(*)
SI_UNIT($,.METRE.)
);
#454=PRODUCT_DEFINITION_SHAPE('','',#455);
#455=PRODUCT_DEFINITION('','',#457,#456);
#456=PRODUCT_DEFINITION_CONTEXT('',#463,'design');
#457=PRODUCT_DEFINITION_FORMATION_WITH_SPECIFIED_SOURCE('','',#459,
 .NOT_KNOWN.);
#458=PRODUCT_RELATED_PRODUCT_CATEGORY('','',(#459));
#459=PRODUCT('DSCH099-E015','DSCH099-E015','DSCH099-E015',(#461));
#460=PRODUCT_CATEGORY('','');
#461=PRODUCT_CONTEXT('',#463,'mechanical');
#462=APPLICATION_PROTOCOL_DEFINITION('international standard',
'ap242_managed_model_based_3d_engineering',2011,#463);
#463=APPLICATION_CONTEXT('managed model based 3d engineering');
ENDSEC;
END-ISO-10303-21;
