ISO-10303-21;
HEADER;
/* Generated by software containing ST-Developer
 * from STEP Tools, Inc. (www.steptools.com) 
 */
/* OPTION: using custom renumber hook */

FILE_DESCRIPTION(
/* description */ ('STEP AP242',
'CAx-IF Rec.Pracs.---Representation and Presentation of Product Manufa
cturing Information (PMI)---4.0---2014-10-13',
'CAx-IF Rec.Pracs.---3D Tessellated Geometry---0.4---2014-09-14','2;1'),

/* implementation_level */ '2;1');

FILE_NAME(
/* name */ '627e611fbac013545b606e86',
/* time_stamp */ '2022-05-13T13:46:08+00:00',
/* author */ (''),
/* organization */ (''),
/* preprocessor_version */ 'ST-DEVELOPER v18.101',
/* originating_system */ '  ',
/* authorisation */ '  ');

FILE_SCHEMA (('AP242_MANAGED_MODEL_BASED_3D_ENGINEERING_MIM_LF { 1 0 10303 442 1 1 4 }'));
ENDSEC;

DATA;
#10=SHAPE_REPRESENTATION_RELATIONSHIP('','',#279,#11);
#11=ADVANCED_BREP_SHAPE_REPRESENTATION('',(#277),#445);
#12=CIRCLE('',#286,0.007112);
#13=CIRCLE('',#287,0.007112);
#14=CIRCLE('',#292,0.007112);
#15=CIRCLE('',#293,0.007112);
#16=CYLINDRICAL_SURFACE('',#285,0.007112);
#17=CYLINDRICAL_SURFACE('',#291,0.007112);
#18=ORIENTED_EDGE('',*,*,#90,.F.);
#19=ORIENTED_EDGE('',*,*,#91,.F.);
#20=ORIENTED_EDGE('',*,*,#92,.T.);
#21=ORIENTED_EDGE('',*,*,#93,.T.);
#22=ORIENTED_EDGE('',*,*,#94,.T.);
#23=ORIENTED_EDGE('',*,*,#95,.F.);
#24=ORIENTED_EDGE('',*,*,#96,.F.);
#25=ORIENTED_EDGE('',*,*,#91,.T.);
#26=ORIENTED_EDGE('',*,*,#97,.T.);
#27=ORIENTED_EDGE('',*,*,#98,.F.);
#28=ORIENTED_EDGE('',*,*,#99,.F.);
#29=ORIENTED_EDGE('',*,*,#95,.T.);
#30=ORIENTED_EDGE('',*,*,#100,.F.);
#31=ORIENTED_EDGE('',*,*,#101,.F.);
#32=ORIENTED_EDGE('',*,*,#102,.T.);
#33=ORIENTED_EDGE('',*,*,#98,.T.);
#34=ORIENTED_EDGE('',*,*,#103,.T.);
#35=ORIENTED_EDGE('',*,*,#104,.F.);
#36=ORIENTED_EDGE('',*,*,#105,.F.);
#37=ORIENTED_EDGE('',*,*,#101,.T.);
#38=ORIENTED_EDGE('',*,*,#106,.T.);
#39=ORIENTED_EDGE('',*,*,#107,.F.);
#40=ORIENTED_EDGE('',*,*,#108,.F.);
#41=ORIENTED_EDGE('',*,*,#104,.T.);
#42=ORIENTED_EDGE('',*,*,#109,.T.);
#43=ORIENTED_EDGE('',*,*,#110,.F.);
#44=ORIENTED_EDGE('',*,*,#111,.F.);
#45=ORIENTED_EDGE('',*,*,#107,.T.);
#46=ORIENTED_EDGE('',*,*,#112,.F.);
#47=ORIENTED_EDGE('',*,*,#113,.F.);
#48=ORIENTED_EDGE('',*,*,#114,.T.);
#49=ORIENTED_EDGE('',*,*,#110,.T.);
#50=ORIENTED_EDGE('',*,*,#115,.F.);
#51=ORIENTED_EDGE('',*,*,#116,.F.);
#52=ORIENTED_EDGE('',*,*,#117,.T.);
#53=ORIENTED_EDGE('',*,*,#113,.T.);
#54=ORIENTED_EDGE('',*,*,#118,.T.);
#55=ORIENTED_EDGE('',*,*,#119,.F.);
#56=ORIENTED_EDGE('',*,*,#120,.F.);
#57=ORIENTED_EDGE('',*,*,#116,.T.);
#58=ORIENTED_EDGE('',*,*,#121,.T.);
#59=ORIENTED_EDGE('',*,*,#122,.F.);
#60=ORIENTED_EDGE('',*,*,#123,.F.);
#61=ORIENTED_EDGE('',*,*,#119,.T.);
#62=ORIENTED_EDGE('',*,*,#124,.F.);
#63=ORIENTED_EDGE('',*,*,#93,.F.);
#64=ORIENTED_EDGE('',*,*,#125,.T.);
#65=ORIENTED_EDGE('',*,*,#122,.T.);
#66=ORIENTED_EDGE('',*,*,#92,.F.);
#67=ORIENTED_EDGE('',*,*,#96,.T.);
#68=ORIENTED_EDGE('',*,*,#99,.T.);
#69=ORIENTED_EDGE('',*,*,#102,.F.);
#70=ORIENTED_EDGE('',*,*,#105,.T.);
#71=ORIENTED_EDGE('',*,*,#108,.T.);
#72=ORIENTED_EDGE('',*,*,#111,.T.);
#73=ORIENTED_EDGE('',*,*,#114,.F.);
#74=ORIENTED_EDGE('',*,*,#117,.F.);
#75=ORIENTED_EDGE('',*,*,#120,.T.);
#76=ORIENTED_EDGE('',*,*,#123,.T.);
#77=ORIENTED_EDGE('',*,*,#125,.F.);
#78=ORIENTED_EDGE('',*,*,#90,.T.);
#79=ORIENTED_EDGE('',*,*,#124,.T.);
#80=ORIENTED_EDGE('',*,*,#121,.F.);
#81=ORIENTED_EDGE('',*,*,#118,.F.);
#82=ORIENTED_EDGE('',*,*,#115,.T.);
#83=ORIENTED_EDGE('',*,*,#112,.T.);
#84=ORIENTED_EDGE('',*,*,#109,.F.);
#85=ORIENTED_EDGE('',*,*,#106,.F.);
#86=ORIENTED_EDGE('',*,*,#103,.F.);
#87=ORIENTED_EDGE('',*,*,#100,.T.);
#88=ORIENTED_EDGE('',*,*,#97,.F.);
#89=ORIENTED_EDGE('',*,*,#94,.F.);
#90=EDGE_CURVE('',#126,#127,#150,.T.);
#91=EDGE_CURVE('',#128,#126,#151,.T.);
#92=EDGE_CURVE('',#128,#129,#152,.T.);
#93=EDGE_CURVE('',#129,#127,#153,.T.);
#94=EDGE_CURVE('',#126,#130,#154,.T.);
#95=EDGE_CURVE('',#131,#130,#155,.T.);
#96=EDGE_CURVE('',#128,#131,#156,.T.);
#97=EDGE_CURVE('',#130,#132,#157,.T.);
#98=EDGE_CURVE('',#133,#132,#158,.T.);
#99=EDGE_CURVE('',#131,#133,#159,.T.);
#100=EDGE_CURVE('',#134,#132,#160,.T.);
#101=EDGE_CURVE('',#135,#134,#161,.T.);
#102=EDGE_CURVE('',#135,#133,#162,.T.);
#103=EDGE_CURVE('',#134,#136,#12,.T.);
#104=EDGE_CURVE('',#137,#136,#163,.T.);
#105=EDGE_CURVE('',#135,#137,#13,.T.);
#106=EDGE_CURVE('',#136,#138,#164,.T.);
#107=EDGE_CURVE('',#139,#138,#165,.T.);
#108=EDGE_CURVE('',#137,#139,#166,.T.);
#109=EDGE_CURVE('',#138,#140,#167,.T.);
#110=EDGE_CURVE('',#141,#140,#168,.T.);
#111=EDGE_CURVE('',#139,#141,#169,.T.);
#112=EDGE_CURVE('',#142,#140,#170,.T.);
#113=EDGE_CURVE('',#143,#142,#171,.T.);
#114=EDGE_CURVE('',#143,#141,#172,.T.);
#115=EDGE_CURVE('',#144,#142,#14,.T.);
#116=EDGE_CURVE('',#145,#144,#173,.T.);
#117=EDGE_CURVE('',#145,#143,#15,.T.);
#118=EDGE_CURVE('',#144,#146,#174,.T.);
#119=EDGE_CURVE('',#147,#146,#175,.T.);
#120=EDGE_CURVE('',#145,#147,#176,.T.);
#121=EDGE_CURVE('',#146,#148,#177,.T.);
#122=EDGE_CURVE('',#149,#148,#178,.T.);
#123=EDGE_CURVE('',#147,#149,#179,.T.);
#124=EDGE_CURVE('',#127,#148,#180,.T.);
#125=EDGE_CURVE('',#129,#149,#181,.T.);
#126=VERTEX_POINT('',#372);
#127=VERTEX_POINT('',#373);
#128=VERTEX_POINT('',#375);
#129=VERTEX_POINT('',#377);
#130=VERTEX_POINT('',#381);
#131=VERTEX_POINT('',#383);
#132=VERTEX_POINT('',#387);
#133=VERTEX_POINT('',#389);
#134=VERTEX_POINT('',#393);
#135=VERTEX_POINT('',#395);
#136=VERTEX_POINT('',#399);
#137=VERTEX_POINT('',#401);
#138=VERTEX_POINT('',#405);
#139=VERTEX_POINT('',#407);
#140=VERTEX_POINT('',#411);
#141=VERTEX_POINT('',#413);
#142=VERTEX_POINT('',#417);
#143=VERTEX_POINT('',#419);
#144=VERTEX_POINT('',#423);
#145=VERTEX_POINT('',#425);
#146=VERTEX_POINT('',#429);
#147=VERTEX_POINT('',#431);
#148=VERTEX_POINT('',#435);
#149=VERTEX_POINT('',#437);
#150=LINE('',#371,#182);
#151=LINE('',#374,#183);
#152=LINE('',#376,#184);
#153=LINE('',#378,#185);
#154=LINE('',#380,#186);
#155=LINE('',#382,#187);
#156=LINE('',#384,#188);
#157=LINE('',#386,#189);
#158=LINE('',#388,#190);
#159=LINE('',#390,#191);
#160=LINE('',#392,#192);
#161=LINE('',#394,#193);
#162=LINE('',#396,#194);
#163=LINE('',#400,#195);
#164=LINE('',#404,#196);
#165=LINE('',#406,#197);
#166=LINE('',#408,#198);
#167=LINE('',#410,#199);
#168=LINE('',#412,#200);
#169=LINE('',#414,#201);
#170=LINE('',#416,#202);
#171=LINE('',#418,#203);
#172=LINE('',#420,#204);
#173=LINE('',#424,#205);
#174=LINE('',#428,#206);
#175=LINE('',#430,#207);
#176=LINE('',#432,#208);
#177=LINE('',#434,#209);
#178=LINE('',#436,#210);
#179=LINE('',#438,#211);
#180=LINE('',#440,#212);
#181=LINE('',#441,#213);
#182=VECTOR('',#303,1.);
#183=VECTOR('',#304,1.);
#184=VECTOR('',#305,1.);
#185=VECTOR('',#306,1.);
#186=VECTOR('',#309,1.);
#187=VECTOR('',#310,1.);
#188=VECTOR('',#311,1.);
#189=VECTOR('',#314,1.);
#190=VECTOR('',#315,1.);
#191=VECTOR('',#316,1.);
#192=VECTOR('',#319,1.);
#193=VECTOR('',#320,1.);
#194=VECTOR('',#321,1.);
#195=VECTOR('',#326,1.);
#196=VECTOR('',#331,1.);
#197=VECTOR('',#332,1.);
#198=VECTOR('',#333,1.);
#199=VECTOR('',#336,1.);
#200=VECTOR('',#337,1.);
#201=VECTOR('',#338,1.);
#202=VECTOR('',#341,1.);
#203=VECTOR('',#342,1.);
#204=VECTOR('',#343,1.);
#205=VECTOR('',#348,1.);
#206=VECTOR('',#353,1.);
#207=VECTOR('',#354,1.);
#208=VECTOR('',#355,1.);
#209=VECTOR('',#358,1.);
#210=VECTOR('',#359,1.);
#211=VECTOR('',#360,1.);
#212=VECTOR('',#363,1.);
#213=VECTOR('',#364,1.);
#214=EDGE_LOOP('',(#18,#19,#20,#21));
#215=EDGE_LOOP('',(#22,#23,#24,#25));
#216=EDGE_LOOP('',(#26,#27,#28,#29));
#217=EDGE_LOOP('',(#30,#31,#32,#33));
#218=EDGE_LOOP('',(#34,#35,#36,#37));
#219=EDGE_LOOP('',(#38,#39,#40,#41));
#220=EDGE_LOOP('',(#42,#43,#44,#45));
#221=EDGE_LOOP('',(#46,#47,#48,#49));
#222=EDGE_LOOP('',(#50,#51,#52,#53));
#223=EDGE_LOOP('',(#54,#55,#56,#57));
#224=EDGE_LOOP('',(#58,#59,#60,#61));
#225=EDGE_LOOP('',(#62,#63,#64,#65));
#226=EDGE_LOOP('',(#66,#67,#68,#69,#70,#71,#72,#73,#74,#75,#76,#77));
#227=EDGE_LOOP('',(#78,#79,#80,#81,#82,#83,#84,#85,#86,#87,#88,#89));
#228=FACE_BOUND('',#214,.T.);
#229=FACE_BOUND('',#215,.T.);
#230=FACE_BOUND('',#216,.T.);
#231=FACE_BOUND('',#217,.T.);
#232=FACE_BOUND('',#218,.T.);
#233=FACE_BOUND('',#219,.T.);
#234=FACE_BOUND('',#220,.T.);
#235=FACE_BOUND('',#221,.T.);
#236=FACE_BOUND('',#222,.T.);
#237=FACE_BOUND('',#223,.T.);
#238=FACE_BOUND('',#224,.T.);
#239=FACE_BOUND('',#225,.T.);
#240=FACE_BOUND('',#226,.T.);
#241=FACE_BOUND('',#227,.T.);
#242=PLANE('',#281);
#243=PLANE('',#282);
#244=PLANE('',#283);
#245=PLANE('',#284);
#246=PLANE('',#288);
#247=PLANE('',#289);
#248=PLANE('',#290);
#249=PLANE('',#294);
#250=PLANE('',#295);
#251=PLANE('',#296);
#252=PLANE('',#297);
#253=PLANE('',#298);
#254=ADVANCED_FACE('',(#228),#242,.T.);
#255=ADVANCED_FACE('',(#229),#243,.F.);
#256=ADVANCED_FACE('',(#230),#244,.F.);
#257=ADVANCED_FACE('',(#231),#245,.T.);
#258=ADVANCED_FACE('',(#232),#16,.F.);
#259=ADVANCED_FACE('',(#233),#246,.F.);
#260=ADVANCED_FACE('',(#234),#247,.F.);
#261=ADVANCED_FACE('',(#235),#248,.T.);
#262=ADVANCED_FACE('',(#236),#17,.F.);
#263=ADVANCED_FACE('',(#237),#249,.F.);
#264=ADVANCED_FACE('',(#238),#250,.F.);
#265=ADVANCED_FACE('',(#239),#251,.T.);
#266=ADVANCED_FACE('',(#240),#252,.T.);
#267=ADVANCED_FACE('',(#241),#253,.F.);
#268=CLOSED_SHELL('',(#254,#255,#256,#257,#258,#259,#260,#261,#262,#263,
#264,#265,#266,#267));
#269=STYLED_ITEM('',(#270),#277);
#270=PRESENTATION_STYLE_ASSIGNMENT((#271));
#271=SURFACE_STYLE_USAGE(.BOTH.,#272);
#272=SURFACE_SIDE_STYLE('',(#273));
#273=SURFACE_STYLE_FILL_AREA(#274);
#274=FILL_AREA_STYLE('',(#275));
#275=FILL_AREA_STYLE_COLOUR('',#276);
#276=COLOUR_RGB('',0.917647058823529,0.917647058823529,0.917647058823529);
#277=MANIFOLD_SOLID_BREP('DSCH110-M025',#268);
#278=SHAPE_DEFINITION_REPRESENTATION(#450,#279);
#279=SHAPE_REPRESENTATION('DSCH110-M025',(#280),#445);
#280=AXIS2_PLACEMENT_3D('',#369,#299,#300);
#281=AXIS2_PLACEMENT_3D('',#370,#301,#302);
#282=AXIS2_PLACEMENT_3D('',#379,#307,#308);
#283=AXIS2_PLACEMENT_3D('',#385,#312,#313);
#284=AXIS2_PLACEMENT_3D('',#391,#317,#318);
#285=AXIS2_PLACEMENT_3D('',#397,#322,#323);
#286=AXIS2_PLACEMENT_3D('',#398,#324,#325);
#287=AXIS2_PLACEMENT_3D('',#402,#327,#328);
#288=AXIS2_PLACEMENT_3D('',#403,#329,#330);
#289=AXIS2_PLACEMENT_3D('',#409,#334,#335);
#290=AXIS2_PLACEMENT_3D('',#415,#339,#340);
#291=AXIS2_PLACEMENT_3D('',#421,#344,#345);
#292=AXIS2_PLACEMENT_3D('',#422,#346,#347);
#293=AXIS2_PLACEMENT_3D('',#426,#349,#350);
#294=AXIS2_PLACEMENT_3D('',#427,#351,#352);
#295=AXIS2_PLACEMENT_3D('',#433,#356,#357);
#296=AXIS2_PLACEMENT_3D('',#439,#361,#362);
#297=AXIS2_PLACEMENT_3D('',#442,#365,#366);
#298=AXIS2_PLACEMENT_3D('',#443,#367,#368);
#299=DIRECTION('',(0.,0.,1.));
#300=DIRECTION('',(1.,0.,0.));
#301=DIRECTION('',(1.21415466385078E-16,-1.,0.));
#302=DIRECTION('',(1.,1.21415466385078E-16,0.));
#303=DIRECTION('',(-1.,-1.21415466385078E-16,0.));
#304=DIRECTION('',(0.,0.,-1.));
#305=DIRECTION('',(-1.,-1.21415466385078E-16,0.));
#306=DIRECTION('',(0.,0.,-1.));
#307=DIRECTION('',(-1.,0.,0.));
#308=DIRECTION('',(0.,0.,1.));
#309=DIRECTION('',(0.,1.,0.));
#310=DIRECTION('',(0.,0.,-1.));
#311=DIRECTION('',(0.,1.,0.));
#312=DIRECTION('',(0.,-1.,0.));
#313=DIRECTION('',(0.,0.,-1.));
#314=DIRECTION('',(-1.,0.,0.));
#315=DIRECTION('',(0.,0.,-1.));
#316=DIRECTION('',(-1.,0.,0.));
#317=DIRECTION('',(-1.,0.,0.));
#318=DIRECTION('',(0.,0.,1.));
#319=DIRECTION('',(0.,1.,0.));
#320=DIRECTION('',(0.,0.,-1.));
#321=DIRECTION('',(0.,1.,0.));
#322=DIRECTION('',(0.,0.,-1.));
#323=DIRECTION('',(-1.,0.,0.));
#324=DIRECTION('',(0.,0.,-1.));
#325=DIRECTION('',(1.,0.,0.));
#326=DIRECTION('',(0.,0.,-1.));
#327=DIRECTION('',(0.,0.,-1.));
#328=DIRECTION('',(1.,0.,0.));
#329=DIRECTION('',(-1.,0.,0.));
#330=DIRECTION('',(0.,0.,1.));
#331=DIRECTION('',(0.,1.,0.));
#332=DIRECTION('',(0.,0.,-1.));
#333=DIRECTION('',(0.,1.,0.));
#334=DIRECTION('',(1.18091411829867E-16,-1.,0.));
#335=DIRECTION('',(1.,1.18091411829867E-16,0.));
#336=DIRECTION('',(-1.,-1.18091411829867E-16,0.));
#337=DIRECTION('',(0.,0.,-1.));
#338=DIRECTION('',(-1.,-1.18091411829867E-16,0.));
#339=DIRECTION('',(-1.,0.,0.));
#340=DIRECTION('',(0.,0.,1.));
#341=DIRECTION('',(0.,1.,0.));
#342=DIRECTION('',(0.,0.,-1.));
#343=DIRECTION('',(0.,1.,0.));
#344=DIRECTION('',(0.,0.,-1.));
#345=DIRECTION('',(-1.,0.,0.));
#346=DIRECTION('',(0.,0.,1.));
#347=DIRECTION('',(1.,0.,0.));
#348=DIRECTION('',(0.,0.,-1.));
#349=DIRECTION('',(0.,0.,1.));
#350=DIRECTION('',(1.,0.,0.));
#351=DIRECTION('',(-1.,0.,0.));
#352=DIRECTION('',(0.,0.,1.));
#353=DIRECTION('',(0.,1.,0.));
#354=DIRECTION('',(0.,0.,-1.));
#355=DIRECTION('',(0.,1.,0.));
#356=DIRECTION('',(0.,-1.,0.));
#357=DIRECTION('',(0.,0.,-1.));
#358=DIRECTION('',(-1.,0.,0.));
#359=DIRECTION('',(0.,0.,-1.));
#360=DIRECTION('',(-1.,0.,0.));
#361=DIRECTION('',(-1.,0.,0.));
#362=DIRECTION('',(0.,0.,1.));
#363=DIRECTION('',(0.,1.,0.));
#364=DIRECTION('',(0.,1.,0.));
#365=DIRECTION('',(0.,0.,1.));
#366=DIRECTION('',(1.,0.,0.));
#367=DIRECTION('',(0.,0.,1.));
#368=DIRECTION('',(1.,0.,0.));
#369=CARTESIAN_POINT('',(0.,0.,0.));
#370=CARTESIAN_POINT('',(0.,-0.01905,0.00025));
#371=CARTESIAN_POINT('',(0.,-0.01905,0.));
#372=CARTESIAN_POINT('',(0.1143,-0.01905,0.));
#373=CARTESIAN_POINT('',(-0.1143,-0.01905,0.));
#374=CARTESIAN_POINT('',(0.1143,-0.01905,0.00025));
#375=CARTESIAN_POINT('',(0.1143,-0.01905,0.00025));
#376=CARTESIAN_POINT('',(0.,-0.01905,0.00025));
#377=CARTESIAN_POINT('',(-0.1143,-0.01905,0.00025));
#378=CARTESIAN_POINT('',(-0.1143,-0.01905,0.00025));
#379=CARTESIAN_POINT('',(0.1143,2.42861286636753E-17,0.00025));
#380=CARTESIAN_POINT('',(0.1143,2.42861286636753E-17,0.));
#381=CARTESIAN_POINT('',(0.1143,0.01905,0.));
#382=CARTESIAN_POINT('',(0.1143,0.01905,0.00025));
#383=CARTESIAN_POINT('',(0.1143,0.01905,0.00025));
#384=CARTESIAN_POINT('',(0.1143,2.42861286636753E-17,0.00025));
#385=CARTESIAN_POINT('',(0.108331,0.01905,0.00025));
#386=CARTESIAN_POINT('',(0.108331,0.01905,0.));
#387=CARTESIAN_POINT('',(0.102362,0.01905,0.));
#388=CARTESIAN_POINT('',(0.102362,0.01905,0.00025));
#389=CARTESIAN_POINT('',(0.102362,0.01905,0.00025));
#390=CARTESIAN_POINT('',(0.108331,0.01905,0.00025));
#391=CARTESIAN_POINT('',(0.102362,0.009525,0.00025));
#392=CARTESIAN_POINT('',(0.102362,0.009525,0.));
#393=CARTESIAN_POINT('',(0.102362,-4.80478088632211E-18,0.));
#394=CARTESIAN_POINT('',(0.102362,-4.80478088632211E-18,0.00025));
#395=CARTESIAN_POINT('',(0.102362,-4.80478088632211E-18,0.00025));
#396=CARTESIAN_POINT('',(0.102362,0.009525,0.00025));
#397=CARTESIAN_POINT('',(0.09525,-7.52765894499896E-18,0.00025));
#398=CARTESIAN_POINT('',(0.09525,-7.52765894499896E-18,0.));
#399=CARTESIAN_POINT('',(0.088138,-5.20417042793042E-18,0.));
#400=CARTESIAN_POINT('',(0.088138,-5.20417042793042E-18,0.00025));
#401=CARTESIAN_POINT('',(0.088138,-5.20417042793042E-18,0.00025));
#402=CARTESIAN_POINT('',(0.09525,-7.52765894499896E-18,0.00025));
#403=CARTESIAN_POINT('',(0.088138,0.009525,0.00025));
#404=CARTESIAN_POINT('',(0.088138,0.009525,0.));
#405=CARTESIAN_POINT('',(0.088138,0.01905,0.));
#406=CARTESIAN_POINT('',(0.088138,0.01905,0.00025));
#407=CARTESIAN_POINT('',(0.088138,0.01905,0.00025));
#408=CARTESIAN_POINT('',(0.088138,0.009525,0.00025));
#409=CARTESIAN_POINT('',(0.,0.01905,0.00025));
#410=CARTESIAN_POINT('',(0.,0.01905,0.));
#411=CARTESIAN_POINT('',(-0.088138,0.01905,0.));
#412=CARTESIAN_POINT('',(-0.088138,0.01905,0.00025));
#413=CARTESIAN_POINT('',(-0.088138,0.01905,0.00025));
#414=CARTESIAN_POINT('',(0.,0.01905,0.00025));
#415=CARTESIAN_POINT('',(-0.088138,0.009525,0.00025));
#416=CARTESIAN_POINT('',(-0.088138,0.009525,0.));
#417=CARTESIAN_POINT('',(-0.088138,-5.20417042793042E-18,0.));
#418=CARTESIAN_POINT('',(-0.088138,-5.20417042793042E-18,0.00025));
#419=CARTESIAN_POINT('',(-0.088138,-5.20417042793042E-18,0.00025));
#420=CARTESIAN_POINT('',(-0.088138,0.009525,0.00025));
#421=CARTESIAN_POINT('',(-0.09525,-7.52765894499896E-18,0.00025));
#422=CARTESIAN_POINT('',(-0.09525,-7.52765894499896E-18,0.));
#423=CARTESIAN_POINT('',(-0.102362,-4.80478088632211E-18,0.));
#424=CARTESIAN_POINT('',(-0.102362,-4.80478088632211E-18,0.00025));
#425=CARTESIAN_POINT('',(-0.102362,-4.80478088632211E-18,0.00025));
#426=CARTESIAN_POINT('',(-0.09525,-7.52765894499896E-18,0.00025));
#427=CARTESIAN_POINT('',(-0.102362,0.009525,0.00025));
#428=CARTESIAN_POINT('',(-0.102362,0.009525,0.));
#429=CARTESIAN_POINT('',(-0.102362,0.01905,0.));
#430=CARTESIAN_POINT('',(-0.102362,0.01905,0.00025));
#431=CARTESIAN_POINT('',(-0.102362,0.01905,0.00025));
#432=CARTESIAN_POINT('',(-0.102362,0.009525,0.00025));
#433=CARTESIAN_POINT('',(-0.108331,0.01905,0.00025));
#434=CARTESIAN_POINT('',(-0.108331,0.01905,0.));
#435=CARTESIAN_POINT('',(-0.1143,0.01905,0.));
#436=CARTESIAN_POINT('',(-0.1143,0.01905,0.00025));
#437=CARTESIAN_POINT('',(-0.1143,0.01905,0.00025));
#438=CARTESIAN_POINT('',(-0.108331,0.01905,0.00025));
#439=CARTESIAN_POINT('',(-0.1143,-3.46944695195361E-18,0.00025));
#440=CARTESIAN_POINT('',(-0.1143,-3.46944695195361E-18,0.));
#441=CARTESIAN_POINT('',(-0.1143,-3.46944695195361E-18,0.00025));
#442=CARTESIAN_POINT('',(0.,1.04083408558608E-17,0.00025));
#443=CARTESIAN_POINT('',(0.,1.04083408558608E-17,0.));
#444=MECHANICAL_DESIGN_GEOMETRIC_PRESENTATION_REPRESENTATION('',(#269),
#445);
#445=(
GEOMETRIC_REPRESENTATION_CONTEXT(3)
GLOBAL_UNCERTAINTY_ASSIGNED_CONTEXT((#446))
GLOBAL_UNIT_ASSIGNED_CONTEXT((#449,#448,#447))
REPRESENTATION_CONTEXT('DSCH110-M025','TOP_LEVEL_ASSEMBLY_PART')
);
#446=UNCERTAINTY_MEASURE_WITH_UNIT(LENGTH_MEASURE(5.E-6),#449,
'DISTANCE_ACCURACY_VALUE','Maximum Tolerance applied to model');
#447=(
NAMED_UNIT(*)
SI_UNIT($,.STERADIAN.)
SOLID_ANGLE_UNIT()
);
#448=(
NAMED_UNIT(*)
PLANE_ANGLE_UNIT()
SI_UNIT($,.RADIAN.)
);
#449=(
LENGTH_UNIT()
NAMED_UNIT(*)
SI_UNIT($,.METRE.)
);
#450=PRODUCT_DEFINITION_SHAPE('','',#451);
#451=PRODUCT_DEFINITION('','',#453,#452);
#452=PRODUCT_DEFINITION_CONTEXT('',#459,'design');
#453=PRODUCT_DEFINITION_FORMATION_WITH_SPECIFIED_SOURCE('','',#455,
 .NOT_KNOWN.);
#454=PRODUCT_RELATED_PRODUCT_CATEGORY('','',(#455));
#455=PRODUCT('DSCH110-M025','DSCH110-M025','DSCH110-M025',(#457));
#456=PRODUCT_CATEGORY('','');
#457=PRODUCT_CONTEXT('',#459,'mechanical');
#458=APPLICATION_PROTOCOL_DEFINITION('international standard',
'ap242_managed_model_based_3d_engineering',2011,#459);
#459=APPLICATION_CONTEXT('managed model based 3d engineering');
ENDSEC;
END-ISO-10303-21;
