ISO-10303-21;
HEADER;
/* Generated by software containing ST-Developer
 * from STEP Tools, Inc. (www.steptools.com) 
 */
/* OPTION: using custom renumber hook */

FILE_DESCRIPTION(
/* description */ ('STEP AP242',
'CAx-IF Rec.Pracs.---Representation and Presentation of Product Manufa
cturing Information (PMI)---4.0---2014-10-13',
'CAx-IF Rec.Pracs.---3D Tessellated Geometry---0.4---2014-09-14','2;1'),

/* implementation_level */ '2;1');

FILE_NAME(
/* name */ '627ea84bf0e87971a262a590',
/* time_stamp */ '2022-05-13T18:49:47+00:00',
/* author */ (''),
/* organization */ (''),
/* preprocessor_version */ 'ST-DEVELOPER v18.101',
/* originating_system */ '  ',
/* authorisation */ '  ');

FILE_SCHEMA (('AP242_MANAGED_MODEL_BASED_3D_ENGINEERING_MIM_LF { 1 0 10303 442 1 1 4 }'));
ENDSEC;

DATA;
#10=SHAPE_REPRESENTATION_RELATIONSHIP('','',#361,#11);
#11=ADVANCED_BREP_SHAPE_REPRESENTATION('',(#359),#579);
#12=CIRCLE('',#365,0.0045);
#13=CIRCLE('',#366,0.0045);
#14=CIRCLE('',#371,0.0045);
#15=CIRCLE('',#372,0.0045);
#16=CIRCLE('',#381,0.0045);
#17=CIRCLE('',#382,0.0045);
#18=CYLINDRICAL_SURFACE('',#364,0.0045);
#19=CYLINDRICAL_SURFACE('',#370,0.0045);
#20=CYLINDRICAL_SURFACE('',#380,0.0045);
#21=ORIENTED_EDGE('',*,*,#117,.F.);
#22=ORIENTED_EDGE('',*,*,#118,.F.);
#23=ORIENTED_EDGE('',*,*,#119,.T.);
#24=ORIENTED_EDGE('',*,*,#120,.T.);
#25=ORIENTED_EDGE('',*,*,#121,.F.);
#26=ORIENTED_EDGE('',*,*,#122,.F.);
#27=ORIENTED_EDGE('',*,*,#123,.T.);
#28=ORIENTED_EDGE('',*,*,#118,.T.);
#29=ORIENTED_EDGE('',*,*,#124,.T.);
#30=ORIENTED_EDGE('',*,*,#125,.F.);
#31=ORIENTED_EDGE('',*,*,#126,.F.);
#32=ORIENTED_EDGE('',*,*,#122,.T.);
#33=ORIENTED_EDGE('',*,*,#127,.T.);
#34=ORIENTED_EDGE('',*,*,#128,.F.);
#35=ORIENTED_EDGE('',*,*,#129,.F.);
#36=ORIENTED_EDGE('',*,*,#125,.T.);
#37=ORIENTED_EDGE('',*,*,#130,.F.);
#38=ORIENTED_EDGE('',*,*,#131,.F.);
#39=ORIENTED_EDGE('',*,*,#132,.T.);
#40=ORIENTED_EDGE('',*,*,#128,.T.);
#41=ORIENTED_EDGE('',*,*,#133,.F.);
#42=ORIENTED_EDGE('',*,*,#134,.F.);
#43=ORIENTED_EDGE('',*,*,#135,.T.);
#44=ORIENTED_EDGE('',*,*,#131,.T.);
#45=ORIENTED_EDGE('',*,*,#136,.T.);
#46=ORIENTED_EDGE('',*,*,#137,.F.);
#47=ORIENTED_EDGE('',*,*,#138,.F.);
#48=ORIENTED_EDGE('',*,*,#134,.T.);
#49=ORIENTED_EDGE('',*,*,#139,.T.);
#50=ORIENTED_EDGE('',*,*,#140,.F.);
#51=ORIENTED_EDGE('',*,*,#141,.F.);
#52=ORIENTED_EDGE('',*,*,#137,.T.);
#53=ORIENTED_EDGE('',*,*,#142,.F.);
#54=ORIENTED_EDGE('',*,*,#143,.F.);
#55=ORIENTED_EDGE('',*,*,#144,.T.);
#56=ORIENTED_EDGE('',*,*,#140,.T.);
#57=ORIENTED_EDGE('',*,*,#145,.F.);
#58=ORIENTED_EDGE('',*,*,#146,.F.);
#59=ORIENTED_EDGE('',*,*,#147,.T.);
#60=ORIENTED_EDGE('',*,*,#143,.T.);
#61=ORIENTED_EDGE('',*,*,#148,.T.);
#62=ORIENTED_EDGE('',*,*,#149,.F.);
#63=ORIENTED_EDGE('',*,*,#150,.F.);
#64=ORIENTED_EDGE('',*,*,#146,.T.);
#65=ORIENTED_EDGE('',*,*,#151,.T.);
#66=ORIENTED_EDGE('',*,*,#152,.F.);
#67=ORIENTED_EDGE('',*,*,#153,.F.);
#68=ORIENTED_EDGE('',*,*,#149,.T.);
#69=ORIENTED_EDGE('',*,*,#154,.F.);
#70=ORIENTED_EDGE('',*,*,#155,.F.);
#71=ORIENTED_EDGE('',*,*,#156,.T.);
#72=ORIENTED_EDGE('',*,*,#152,.T.);
#73=ORIENTED_EDGE('',*,*,#157,.T.);
#74=ORIENTED_EDGE('',*,*,#158,.F.);
#75=ORIENTED_EDGE('',*,*,#159,.F.);
#76=ORIENTED_EDGE('',*,*,#155,.T.);
#77=ORIENTED_EDGE('',*,*,#160,.T.);
#78=ORIENTED_EDGE('',*,*,#161,.F.);
#79=ORIENTED_EDGE('',*,*,#162,.F.);
#80=ORIENTED_EDGE('',*,*,#158,.T.);
#81=ORIENTED_EDGE('',*,*,#163,.T.);
#82=ORIENTED_EDGE('',*,*,#120,.F.);
#83=ORIENTED_EDGE('',*,*,#164,.F.);
#84=ORIENTED_EDGE('',*,*,#161,.T.);
#85=ORIENTED_EDGE('',*,*,#119,.F.);
#86=ORIENTED_EDGE('',*,*,#123,.F.);
#87=ORIENTED_EDGE('',*,*,#126,.T.);
#88=ORIENTED_EDGE('',*,*,#129,.T.);
#89=ORIENTED_EDGE('',*,*,#132,.F.);
#90=ORIENTED_EDGE('',*,*,#135,.F.);
#91=ORIENTED_EDGE('',*,*,#138,.T.);
#92=ORIENTED_EDGE('',*,*,#141,.T.);
#93=ORIENTED_EDGE('',*,*,#144,.F.);
#94=ORIENTED_EDGE('',*,*,#147,.F.);
#95=ORIENTED_EDGE('',*,*,#150,.T.);
#96=ORIENTED_EDGE('',*,*,#153,.T.);
#97=ORIENTED_EDGE('',*,*,#156,.F.);
#98=ORIENTED_EDGE('',*,*,#159,.T.);
#99=ORIENTED_EDGE('',*,*,#162,.T.);
#100=ORIENTED_EDGE('',*,*,#164,.T.);
#101=ORIENTED_EDGE('',*,*,#117,.T.);
#102=ORIENTED_EDGE('',*,*,#163,.F.);
#103=ORIENTED_EDGE('',*,*,#160,.F.);
#104=ORIENTED_EDGE('',*,*,#157,.F.);
#105=ORIENTED_EDGE('',*,*,#154,.T.);
#106=ORIENTED_EDGE('',*,*,#151,.F.);
#107=ORIENTED_EDGE('',*,*,#148,.F.);
#108=ORIENTED_EDGE('',*,*,#145,.T.);
#109=ORIENTED_EDGE('',*,*,#142,.T.);
#110=ORIENTED_EDGE('',*,*,#139,.F.);
#111=ORIENTED_EDGE('',*,*,#136,.F.);
#112=ORIENTED_EDGE('',*,*,#133,.T.);
#113=ORIENTED_EDGE('',*,*,#130,.T.);
#114=ORIENTED_EDGE('',*,*,#127,.F.);
#115=ORIENTED_EDGE('',*,*,#124,.F.);
#116=ORIENTED_EDGE('',*,*,#121,.T.);
#117=EDGE_CURVE('',#165,#166,#197,.T.);
#118=EDGE_CURVE('',#167,#165,#198,.T.);
#119=EDGE_CURVE('',#167,#168,#199,.T.);
#120=EDGE_CURVE('',#168,#166,#200,.T.);
#121=EDGE_CURVE('',#169,#165,#12,.T.);
#122=EDGE_CURVE('',#170,#169,#201,.T.);
#123=EDGE_CURVE('',#170,#167,#13,.T.);
#124=EDGE_CURVE('',#169,#171,#202,.T.);
#125=EDGE_CURVE('',#172,#171,#203,.T.);
#126=EDGE_CURVE('',#170,#172,#204,.T.);
#127=EDGE_CURVE('',#171,#173,#205,.T.);
#128=EDGE_CURVE('',#174,#173,#206,.T.);
#129=EDGE_CURVE('',#172,#174,#207,.T.);
#130=EDGE_CURVE('',#175,#173,#208,.T.);
#131=EDGE_CURVE('',#176,#175,#209,.T.);
#132=EDGE_CURVE('',#176,#174,#210,.T.);
#133=EDGE_CURVE('',#177,#175,#14,.T.);
#134=EDGE_CURVE('',#178,#177,#211,.T.);
#135=EDGE_CURVE('',#178,#176,#15,.T.);
#136=EDGE_CURVE('',#177,#179,#212,.T.);
#137=EDGE_CURVE('',#180,#179,#213,.T.);
#138=EDGE_CURVE('',#178,#180,#214,.T.);
#139=EDGE_CURVE('',#179,#181,#215,.T.);
#140=EDGE_CURVE('',#182,#181,#216,.T.);
#141=EDGE_CURVE('',#180,#182,#217,.T.);
#142=EDGE_CURVE('',#183,#181,#218,.T.);
#143=EDGE_CURVE('',#184,#183,#219,.T.);
#144=EDGE_CURVE('',#184,#182,#220,.T.);
#145=EDGE_CURVE('',#185,#183,#221,.T.);
#146=EDGE_CURVE('',#186,#185,#222,.T.);
#147=EDGE_CURVE('',#186,#184,#223,.T.);
#148=EDGE_CURVE('',#185,#187,#224,.T.);
#149=EDGE_CURVE('',#188,#187,#225,.T.);
#150=EDGE_CURVE('',#186,#188,#226,.T.);
#151=EDGE_CURVE('',#187,#189,#227,.T.);
#152=EDGE_CURVE('',#190,#189,#228,.T.);
#153=EDGE_CURVE('',#188,#190,#229,.T.);
#154=EDGE_CURVE('',#191,#189,#230,.T.);
#155=EDGE_CURVE('',#192,#191,#231,.T.);
#156=EDGE_CURVE('',#192,#190,#232,.T.);
#157=EDGE_CURVE('',#191,#193,#16,.T.);
#158=EDGE_CURVE('',#194,#193,#233,.T.);
#159=EDGE_CURVE('',#192,#194,#17,.T.);
#160=EDGE_CURVE('',#193,#195,#234,.T.);
#161=EDGE_CURVE('',#196,#195,#235,.T.);
#162=EDGE_CURVE('',#194,#196,#236,.T.);
#163=EDGE_CURVE('',#195,#166,#237,.T.);
#164=EDGE_CURVE('',#196,#168,#238,.T.);
#165=VERTEX_POINT('',#482);
#166=VERTEX_POINT('',#483);
#167=VERTEX_POINT('',#485);
#168=VERTEX_POINT('',#487);
#169=VERTEX_POINT('',#491);
#170=VERTEX_POINT('',#493);
#171=VERTEX_POINT('',#497);
#172=VERTEX_POINT('',#499);
#173=VERTEX_POINT('',#503);
#174=VERTEX_POINT('',#505);
#175=VERTEX_POINT('',#509);
#176=VERTEX_POINT('',#511);
#177=VERTEX_POINT('',#515);
#178=VERTEX_POINT('',#517);
#179=VERTEX_POINT('',#521);
#180=VERTEX_POINT('',#523);
#181=VERTEX_POINT('',#527);
#182=VERTEX_POINT('',#529);
#183=VERTEX_POINT('',#533);
#184=VERTEX_POINT('',#535);
#185=VERTEX_POINT('',#539);
#186=VERTEX_POINT('',#541);
#187=VERTEX_POINT('',#545);
#188=VERTEX_POINT('',#547);
#189=VERTEX_POINT('',#551);
#190=VERTEX_POINT('',#553);
#191=VERTEX_POINT('',#557);
#192=VERTEX_POINT('',#559);
#193=VERTEX_POINT('',#563);
#194=VERTEX_POINT('',#565);
#195=VERTEX_POINT('',#569);
#196=VERTEX_POINT('',#571);
#197=LINE('',#481,#239);
#198=LINE('',#484,#240);
#199=LINE('',#486,#241);
#200=LINE('',#488,#242);
#201=LINE('',#492,#243);
#202=LINE('',#496,#244);
#203=LINE('',#498,#245);
#204=LINE('',#500,#246);
#205=LINE('',#502,#247);
#206=LINE('',#504,#248);
#207=LINE('',#506,#249);
#208=LINE('',#508,#250);
#209=LINE('',#510,#251);
#210=LINE('',#512,#252);
#211=LINE('',#516,#253);
#212=LINE('',#520,#254);
#213=LINE('',#522,#255);
#214=LINE('',#524,#256);
#215=LINE('',#526,#257);
#216=LINE('',#528,#258);
#217=LINE('',#530,#259);
#218=LINE('',#532,#260);
#219=LINE('',#534,#261);
#220=LINE('',#536,#262);
#221=LINE('',#538,#263);
#222=LINE('',#540,#264);
#223=LINE('',#542,#265);
#224=LINE('',#544,#266);
#225=LINE('',#546,#267);
#226=LINE('',#548,#268);
#227=LINE('',#550,#269);
#228=LINE('',#552,#270);
#229=LINE('',#554,#271);
#230=LINE('',#556,#272);
#231=LINE('',#558,#273);
#232=LINE('',#560,#274);
#233=LINE('',#564,#275);
#234=LINE('',#568,#276);
#235=LINE('',#570,#277);
#236=LINE('',#572,#278);
#237=LINE('',#574,#279);
#238=LINE('',#575,#280);
#239=VECTOR('',#391,1.);
#240=VECTOR('',#392,1.);
#241=VECTOR('',#393,1.);
#242=VECTOR('',#394,1.);
#243=VECTOR('',#399,1.);
#244=VECTOR('',#404,1.);
#245=VECTOR('',#405,1.);
#246=VECTOR('',#406,1.);
#247=VECTOR('',#409,1.);
#248=VECTOR('',#410,1.);
#249=VECTOR('',#411,1.);
#250=VECTOR('',#414,1.);
#251=VECTOR('',#415,1.);
#252=VECTOR('',#416,1.);
#253=VECTOR('',#421,1.);
#254=VECTOR('',#426,1.);
#255=VECTOR('',#427,1.);
#256=VECTOR('',#428,1.);
#257=VECTOR('',#431,1.);
#258=VECTOR('',#432,1.);
#259=VECTOR('',#433,1.);
#260=VECTOR('',#436,1.);
#261=VECTOR('',#437,1.);
#262=VECTOR('',#438,1.);
#263=VECTOR('',#441,1.);
#264=VECTOR('',#442,1.);
#265=VECTOR('',#443,1.);
#266=VECTOR('',#446,1.);
#267=VECTOR('',#447,1.);
#268=VECTOR('',#448,1.);
#269=VECTOR('',#451,1.);
#270=VECTOR('',#452,1.);
#271=VECTOR('',#453,1.);
#272=VECTOR('',#456,1.);
#273=VECTOR('',#457,1.);
#274=VECTOR('',#458,1.);
#275=VECTOR('',#463,1.);
#276=VECTOR('',#468,1.);
#277=VECTOR('',#469,1.);
#278=VECTOR('',#470,1.);
#279=VECTOR('',#473,1.);
#280=VECTOR('',#474,1.);
#281=EDGE_LOOP('',(#21,#22,#23,#24));
#282=EDGE_LOOP('',(#25,#26,#27,#28));
#283=EDGE_LOOP('',(#29,#30,#31,#32));
#284=EDGE_LOOP('',(#33,#34,#35,#36));
#285=EDGE_LOOP('',(#37,#38,#39,#40));
#286=EDGE_LOOP('',(#41,#42,#43,#44));
#287=EDGE_LOOP('',(#45,#46,#47,#48));
#288=EDGE_LOOP('',(#49,#50,#51,#52));
#289=EDGE_LOOP('',(#53,#54,#55,#56));
#290=EDGE_LOOP('',(#57,#58,#59,#60));
#291=EDGE_LOOP('',(#61,#62,#63,#64));
#292=EDGE_LOOP('',(#65,#66,#67,#68));
#293=EDGE_LOOP('',(#69,#70,#71,#72));
#294=EDGE_LOOP('',(#73,#74,#75,#76));
#295=EDGE_LOOP('',(#77,#78,#79,#80));
#296=EDGE_LOOP('',(#81,#82,#83,#84));
#297=EDGE_LOOP('',(#85,#86,#87,#88,#89,#90,#91,#92,#93,#94,#95,#96,#97,
#98,#99,#100));
#298=EDGE_LOOP('',(#101,#102,#103,#104,#105,#106,#107,#108,#109,#110,#111,
#112,#113,#114,#115,#116));
#299=FACE_BOUND('',#281,.T.);
#300=FACE_BOUND('',#282,.T.);
#301=FACE_BOUND('',#283,.T.);
#302=FACE_BOUND('',#284,.T.);
#303=FACE_BOUND('',#285,.T.);
#304=FACE_BOUND('',#286,.T.);
#305=FACE_BOUND('',#287,.T.);
#306=FACE_BOUND('',#288,.T.);
#307=FACE_BOUND('',#289,.T.);
#308=FACE_BOUND('',#290,.T.);
#309=FACE_BOUND('',#291,.T.);
#310=FACE_BOUND('',#292,.T.);
#311=FACE_BOUND('',#293,.T.);
#312=FACE_BOUND('',#294,.T.);
#313=FACE_BOUND('',#295,.T.);
#314=FACE_BOUND('',#296,.T.);
#315=FACE_BOUND('',#297,.T.);
#316=FACE_BOUND('',#298,.T.);
#317=PLANE('',#363);
#318=PLANE('',#367);
#319=PLANE('',#368);
#320=PLANE('',#369);
#321=PLANE('',#373);
#322=PLANE('',#374);
#323=PLANE('',#375);
#324=PLANE('',#376);
#325=PLANE('',#377);
#326=PLANE('',#378);
#327=PLANE('',#379);
#328=PLANE('',#383);
#329=PLANE('',#384);
#330=PLANE('',#385);
#331=PLANE('',#386);
#332=ADVANCED_FACE('',(#299),#317,.T.);
#333=ADVANCED_FACE('',(#300),#18,.F.);
#334=ADVANCED_FACE('',(#301),#318,.F.);
#335=ADVANCED_FACE('',(#302),#319,.F.);
#336=ADVANCED_FACE('',(#303),#320,.T.);
#337=ADVANCED_FACE('',(#304),#19,.F.);
#338=ADVANCED_FACE('',(#305),#321,.F.);
#339=ADVANCED_FACE('',(#306),#322,.F.);
#340=ADVANCED_FACE('',(#307),#323,.T.);
#341=ADVANCED_FACE('',(#308),#324,.T.);
#342=ADVANCED_FACE('',(#309),#325,.F.);
#343=ADVANCED_FACE('',(#310),#326,.F.);
#344=ADVANCED_FACE('',(#311),#327,.T.);
#345=ADVANCED_FACE('',(#312),#20,.F.);
#346=ADVANCED_FACE('',(#313),#328,.F.);
#347=ADVANCED_FACE('',(#314),#329,.F.);
#348=ADVANCED_FACE('',(#315),#330,.T.);
#349=ADVANCED_FACE('',(#316),#331,.F.);
#350=CLOSED_SHELL('',(#332,#333,#334,#335,#336,#337,#338,#339,#340,#341,
#342,#343,#344,#345,#346,#347,#348,#349));
#351=STYLED_ITEM('',(#352),#359);
#352=PRESENTATION_STYLE_ASSIGNMENT((#353));
#353=SURFACE_STYLE_USAGE(.BOTH.,#354);
#354=SURFACE_SIDE_STYLE('',(#355));
#355=SURFACE_STYLE_FILL_AREA(#356);
#356=FILL_AREA_STYLE('',(#357));
#357=FILL_AREA_STYLE_COLOUR('',#358);
#358=COLOUR_RGB('',0.301960784313725,0.301960784313725,0.301960784313725);
#359=MANIFOLD_SOLID_BREP('DSCH114-M200',#350);
#360=SHAPE_DEFINITION_REPRESENTATION(#584,#361);
#361=SHAPE_REPRESENTATION('DSCH114-M200',(#362),#579);
#362=AXIS2_PLACEMENT_3D('',#479,#387,#388);
#363=AXIS2_PLACEMENT_3D('',#480,#389,#390);
#364=AXIS2_PLACEMENT_3D('',#489,#395,#396);
#365=AXIS2_PLACEMENT_3D('',#490,#397,#398);
#366=AXIS2_PLACEMENT_3D('',#494,#400,#401);
#367=AXIS2_PLACEMENT_3D('',#495,#402,#403);
#368=AXIS2_PLACEMENT_3D('',#501,#407,#408);
#369=AXIS2_PLACEMENT_3D('',#507,#412,#413);
#370=AXIS2_PLACEMENT_3D('',#513,#417,#418);
#371=AXIS2_PLACEMENT_3D('',#514,#419,#420);
#372=AXIS2_PLACEMENT_3D('',#518,#422,#423);
#373=AXIS2_PLACEMENT_3D('',#519,#424,#425);
#374=AXIS2_PLACEMENT_3D('',#525,#429,#430);
#375=AXIS2_PLACEMENT_3D('',#531,#434,#435);
#376=AXIS2_PLACEMENT_3D('',#537,#439,#440);
#377=AXIS2_PLACEMENT_3D('',#543,#444,#445);
#378=AXIS2_PLACEMENT_3D('',#549,#449,#450);
#379=AXIS2_PLACEMENT_3D('',#555,#454,#455);
#380=AXIS2_PLACEMENT_3D('',#561,#459,#460);
#381=AXIS2_PLACEMENT_3D('',#562,#461,#462);
#382=AXIS2_PLACEMENT_3D('',#566,#464,#465);
#383=AXIS2_PLACEMENT_3D('',#567,#466,#467);
#384=AXIS2_PLACEMENT_3D('',#573,#471,#472);
#385=AXIS2_PLACEMENT_3D('',#576,#475,#476);
#386=AXIS2_PLACEMENT_3D('',#577,#477,#478);
#387=DIRECTION('',(0.,0.,1.));
#388=DIRECTION('',(1.,0.,0.));
#389=DIRECTION('',(-1.,0.,0.));
#390=DIRECTION('',(0.,0.,1.));
#391=DIRECTION('',(0.,1.,0.));
#392=DIRECTION('',(0.,0.,-1.));
#393=DIRECTION('',(0.,1.,0.));
#394=DIRECTION('',(0.,0.,-1.));
#395=DIRECTION('',(0.,0.,-1.));
#396=DIRECTION('',(-1.,0.,0.));
#397=DIRECTION('',(0.,0.,1.));
#398=DIRECTION('',(1.,0.,0.));
#399=DIRECTION('',(0.,0.,-1.));
#400=DIRECTION('',(0.,0.,1.));
#401=DIRECTION('',(1.,0.,0.));
#402=DIRECTION('',(-1.,0.,0.));
#403=DIRECTION('',(0.,0.,1.));
#404=DIRECTION('',(0.,1.,0.));
#405=DIRECTION('',(0.,0.,-1.));
#406=DIRECTION('',(0.,1.,0.));
#407=DIRECTION('',(2.89120579329468E-16,-1.,0.));
#408=DIRECTION('',(1.,2.89120579329468E-16,0.));
#409=DIRECTION('',(-1.,-2.89120579329468E-16,0.));
#410=DIRECTION('',(0.,0.,-1.));
#411=DIRECTION('',(-1.,-2.89120579329468E-16,0.));
#412=DIRECTION('',(-1.,-3.46944695195362E-16,0.));
#413=DIRECTION('',(3.46944695195362E-16,-1.,0.));
#414=DIRECTION('',(-3.46944695195362E-16,1.,0.));
#415=DIRECTION('',(0.,0.,-1.));
#416=DIRECTION('',(-3.46944695195362E-16,1.,0.));
#417=DIRECTION('',(0.,0.,-1.));
#418=DIRECTION('',(-1.,0.,0.));
#419=DIRECTION('',(0.,0.,1.));
#420=DIRECTION('',(1.,0.,0.));
#421=DIRECTION('',(0.,0.,-1.));
#422=DIRECTION('',(0.,0.,1.));
#423=DIRECTION('',(1.,0.,0.));
#424=DIRECTION('',(-1.,0.,0.));
#425=DIRECTION('',(0.,0.,1.));
#426=DIRECTION('',(0.,1.,0.));
#427=DIRECTION('',(0.,0.,-1.));
#428=DIRECTION('',(0.,1.,0.));
#429=DIRECTION('',(3.15404268359419E-16,-1.,0.));
#430=DIRECTION('',(1.,3.15404268359419E-16,0.));
#431=DIRECTION('',(-1.,-3.15404268359419E-16,0.));
#432=DIRECTION('',(0.,0.,-1.));
#433=DIRECTION('',(-1.,-3.15404268359419E-16,0.));
#434=DIRECTION('',(-1.,0.,0.));
#435=DIRECTION('',(0.,0.,1.));
#436=DIRECTION('',(0.,1.,0.));
#437=DIRECTION('',(0.,0.,-1.));
#438=DIRECTION('',(0.,1.,0.));
#439=DIRECTION('',(1.04083408558608E-16,-1.,0.));
#440=DIRECTION('',(1.,1.04083408558608E-16,0.));
#441=DIRECTION('',(-1.,-1.04083408558608E-16,0.));
#442=DIRECTION('',(0.,0.,-1.));
#443=DIRECTION('',(-1.,-1.04083408558608E-16,0.));
#444=DIRECTION('',(-1.,0.,0.));
#445=DIRECTION('',(0.,0.,1.));
#446=DIRECTION('',(0.,1.,0.));
#447=DIRECTION('',(0.,0.,-1.));
#448=DIRECTION('',(0.,1.,0.));
#449=DIRECTION('',(3.1540426835942E-16,-1.,0.));
#450=DIRECTION('',(1.,3.1540426835942E-16,0.));
#451=DIRECTION('',(-1.,-3.1540426835942E-16,0.));
#452=DIRECTION('',(0.,0.,-1.));
#453=DIRECTION('',(-1.,-3.1540426835942E-16,0.));
#454=DIRECTION('',(-1.,0.,0.));
#455=DIRECTION('',(0.,0.,1.));
#456=DIRECTION('',(0.,1.,0.));
#457=DIRECTION('',(0.,0.,-1.));
#458=DIRECTION('',(0.,1.,0.));
#459=DIRECTION('',(0.,0.,-1.));
#460=DIRECTION('',(-1.,0.,0.));
#461=DIRECTION('',(0.,0.,-1.));
#462=DIRECTION('',(1.,0.,0.));
#463=DIRECTION('',(0.,0.,-1.));
#464=DIRECTION('',(0.,0.,-1.));
#465=DIRECTION('',(1.,0.,0.));
#466=DIRECTION('',(-1.,3.46944695195362E-16,0.));
#467=DIRECTION('',(-3.46944695195362E-16,-1.,0.));
#468=DIRECTION('',(3.46944695195362E-16,1.,0.));
#469=DIRECTION('',(0.,0.,-1.));
#470=DIRECTION('',(3.46944695195362E-16,1.,0.));
#471=DIRECTION('',(2.89120579329468E-16,-1.,0.));
#472=DIRECTION('',(1.,2.89120579329468E-16,0.));
#473=DIRECTION('',(-1.,-2.89120579329468E-16,0.));
#474=DIRECTION('',(-1.,-2.89120579329468E-16,0.));
#475=DIRECTION('',(0.,0.,1.));
#476=DIRECTION('',(1.,0.,0.));
#477=DIRECTION('',(0.,0.,1.));
#478=DIRECTION('',(1.,0.,0.));
#479=CARTESIAN_POINT('',(0.,0.,0.));
#480=CARTESIAN_POINT('',(0.0045,0.005,0.002));
#481=CARTESIAN_POINT('',(0.0045,0.005,0.));
#482=CARTESIAN_POINT('',(0.0045,-1.10218211923262E-18,0.));
#483=CARTESIAN_POINT('',(0.0045,0.01,0.));
#484=CARTESIAN_POINT('',(0.0045,-1.10218211923262E-18,0.002));
#485=CARTESIAN_POINT('',(0.0045,-1.10218211923262E-18,0.002));
#486=CARTESIAN_POINT('',(0.0045,0.005,0.002));
#487=CARTESIAN_POINT('',(0.0045,0.01,0.002));
#488=CARTESIAN_POINT('',(0.0045,0.01,0.002));
#489=CARTESIAN_POINT('',(0.,-2.75545529808154E-19,0.002));
#490=CARTESIAN_POINT('',(0.,-2.75545529808154E-19,0.));
#491=CARTESIAN_POINT('',(-0.0045,0.,0.));
#492=CARTESIAN_POINT('',(-0.0045,0.,0.002));
#493=CARTESIAN_POINT('',(-0.0045,0.,0.002));
#494=CARTESIAN_POINT('',(0.,-2.75545529808154E-19,0.002));
#495=CARTESIAN_POINT('',(-0.0045,0.005,0.002));
#496=CARTESIAN_POINT('',(-0.0045,0.005,0.));
#497=CARTESIAN_POINT('',(-0.0045,0.01,0.));
#498=CARTESIAN_POINT('',(-0.0045,0.01,0.002));
#499=CARTESIAN_POINT('',(-0.0045,0.01,0.002));
#500=CARTESIAN_POINT('',(-0.0045,0.005,0.002));
#501=CARTESIAN_POINT('',(-0.0075,0.01,0.002));
#502=CARTESIAN_POINT('',(-0.0075,0.01,0.));
#503=CARTESIAN_POINT('',(-0.0105,0.01,0.));
#504=CARTESIAN_POINT('',(-0.0105,0.01,0.002));
#505=CARTESIAN_POINT('',(-0.0105,0.01,0.002));
#506=CARTESIAN_POINT('',(-0.0075,0.01,0.002));
#507=CARTESIAN_POINT('',(-0.0105,0.005,0.002));
#508=CARTESIAN_POINT('',(-0.0105,0.005,0.));
#509=CARTESIAN_POINT('',(-0.0105,-5.94608108380084E-19,0.));
#510=CARTESIAN_POINT('',(-0.0105,-5.94608108380084E-19,0.002));
#511=CARTESIAN_POINT('',(-0.0105,-5.94608108380084E-19,0.002));
#512=CARTESIAN_POINT('',(-0.0105,0.005,0.002));
#513=CARTESIAN_POINT('',(-0.015,-8.70153638188238E-19,0.002));
#514=CARTESIAN_POINT('',(-0.015,-8.70153638188238E-19,0.));
#515=CARTESIAN_POINT('',(-0.0195,-8.67361737988404E-19,0.));
#516=CARTESIAN_POINT('',(-0.0195,-8.67361737988404E-19,0.002));
#517=CARTESIAN_POINT('',(-0.0195,-8.67361737988404E-19,0.002));
#518=CARTESIAN_POINT('',(-0.015,-8.70153638188238E-19,0.002));
#519=CARTESIAN_POINT('',(-0.0195,0.005,0.002));
#520=CARTESIAN_POINT('',(-0.0195,0.005,0.));
#521=CARTESIAN_POINT('',(-0.0195,0.01,0.));
#522=CARTESIAN_POINT('',(-0.0195,0.01,0.002));
#523=CARTESIAN_POINT('',(-0.0195,0.01,0.002));
#524=CARTESIAN_POINT('',(-0.0195,0.005,0.002));
#525=CARTESIAN_POINT('',(-0.02225,0.01,0.002));
#526=CARTESIAN_POINT('',(-0.02225,0.01,0.));
#527=CARTESIAN_POINT('',(-0.025,0.01,0.));
#528=CARTESIAN_POINT('',(-0.025,0.01,0.002));
#529=CARTESIAN_POINT('',(-0.025,0.01,0.002));
#530=CARTESIAN_POINT('',(-0.02225,0.01,0.002));
#531=CARTESIAN_POINT('',(-0.025,-1.7347234759768E-18,0.002));
#532=CARTESIAN_POINT('',(-0.025,-1.7347234759768E-18,0.));
#533=CARTESIAN_POINT('',(-0.025,-0.01,0.));
#534=CARTESIAN_POINT('',(-0.025,-0.01,0.002));
#535=CARTESIAN_POINT('',(-0.025,-0.01,0.002));
#536=CARTESIAN_POINT('',(-0.025,-1.7347234759768E-18,0.002));
#537=CARTESIAN_POINT('',(0.,-0.01,0.002));
#538=CARTESIAN_POINT('',(0.,-0.01,0.));
#539=CARTESIAN_POINT('',(0.025,-0.01,0.));
#540=CARTESIAN_POINT('',(0.025,-0.01,0.002));
#541=CARTESIAN_POINT('',(0.025,-0.01,0.002));
#542=CARTESIAN_POINT('',(0.,-0.01,0.002));
#543=CARTESIAN_POINT('',(0.025,1.7347234759768E-18,0.002));
#544=CARTESIAN_POINT('',(0.025,1.7347234759768E-18,0.));
#545=CARTESIAN_POINT('',(0.025,0.01,0.));
#546=CARTESIAN_POINT('',(0.025,0.01,0.002));
#547=CARTESIAN_POINT('',(0.025,0.01,0.002));
#548=CARTESIAN_POINT('',(0.025,1.7347234759768E-18,0.002));
#549=CARTESIAN_POINT('',(0.02225,0.01,0.002));
#550=CARTESIAN_POINT('',(0.02225,0.01,0.));
#551=CARTESIAN_POINT('',(0.0195,0.01,0.));
#552=CARTESIAN_POINT('',(0.0195,0.01,0.002));
#553=CARTESIAN_POINT('',(0.0195,0.01,0.002));
#554=CARTESIAN_POINT('',(0.02225,0.01,0.002));
#555=CARTESIAN_POINT('',(0.0195,0.005,0.002));
#556=CARTESIAN_POINT('',(0.0195,0.005,0.));
#557=CARTESIAN_POINT('',(0.0195,-1.14569916799639E-18,0.));
#558=CARTESIAN_POINT('',(0.0195,-1.14569916799639E-18,0.002));
#559=CARTESIAN_POINT('',(0.0195,-1.14569916799639E-18,0.002));
#560=CARTESIAN_POINT('',(0.0195,0.005,0.002));
#561=CARTESIAN_POINT('',(0.015,-8.70153638188238E-19,0.002));
#562=CARTESIAN_POINT('',(0.015,-8.70153638188238E-19,0.));
#563=CARTESIAN_POINT('',(0.0105,0.,0.));
#564=CARTESIAN_POINT('',(0.0105,0.,0.002));
#565=CARTESIAN_POINT('',(0.0105,0.,0.002));
#566=CARTESIAN_POINT('',(0.015,-8.70153638188238E-19,0.002));
#567=CARTESIAN_POINT('',(0.0105,0.005,0.002));
#568=CARTESIAN_POINT('',(0.0105,0.005,0.));
#569=CARTESIAN_POINT('',(0.0105,0.01,0.));
#570=CARTESIAN_POINT('',(0.0105,0.01,0.002));
#571=CARTESIAN_POINT('',(0.0105,0.01,0.002));
#572=CARTESIAN_POINT('',(0.0105,0.005,0.002));
#573=CARTESIAN_POINT('',(0.0075,0.01,0.002));
#574=CARTESIAN_POINT('',(0.0075,0.01,0.));
#575=CARTESIAN_POINT('',(0.0075,0.01,0.002));
#576=CARTESIAN_POINT('',(0.,0.,0.002));
#577=CARTESIAN_POINT('',(0.,0.,0.));
#578=MECHANICAL_DESIGN_GEOMETRIC_PRESENTATION_REPRESENTATION('',(#351),
#579);
#579=(
GEOMETRIC_REPRESENTATION_CONTEXT(3)
GLOBAL_UNCERTAINTY_ASSIGNED_CONTEXT((#580))
GLOBAL_UNIT_ASSIGNED_CONTEXT((#583,#582,#581))
REPRESENTATION_CONTEXT('DSCH114-M200','TOP_LEVEL_ASSEMBLY_PART')
);
#580=UNCERTAINTY_MEASURE_WITH_UNIT(LENGTH_MEASURE(5.E-6),#583,
'DISTANCE_ACCURACY_VALUE','Maximum Tolerance applied to model');
#581=(
NAMED_UNIT(*)
SI_UNIT($,.STERADIAN.)
SOLID_ANGLE_UNIT()
);
#582=(
NAMED_UNIT(*)
PLANE_ANGLE_UNIT()
SI_UNIT($,.RADIAN.)
);
#583=(
LENGTH_UNIT()
NAMED_UNIT(*)
SI_UNIT($,.METRE.)
);
#584=PRODUCT_DEFINITION_SHAPE('','',#585);
#585=PRODUCT_DEFINITION('','',#587,#586);
#586=PRODUCT_DEFINITION_CONTEXT('',#593,'design');
#587=PRODUCT_DEFINITION_FORMATION_WITH_SPECIFIED_SOURCE('','',#589,
 .NOT_KNOWN.);
#588=PRODUCT_RELATED_PRODUCT_CATEGORY('','',(#589));
#589=PRODUCT('DSCH114-M200','DSCH114-M200','DSCH114-M200',(#591));
#590=PRODUCT_CATEGORY('','');
#591=PRODUCT_CONTEXT('',#593,'mechanical');
#592=APPLICATION_PROTOCOL_DEFINITION('international standard',
'ap242_managed_model_based_3d_engineering',2011,#593);
#593=APPLICATION_CONTEXT('managed model based 3d engineering');
ENDSEC;
END-ISO-10303-21;
