ISO-10303-21;
HEADER;
/* Generated by software containing ST-Developer
 * from STEP Tools, Inc. (www.steptools.com) 
 */
/* OPTION: using custom renumber hook */

FILE_DESCRIPTION(
/* description */ ('STEP AP242',
'CAx-IF Rec.Pracs.---Representation and Presentation of Product Manufa
cturing Information (PMI)---4.0---2014-10-13',
'CAx-IF Rec.Pracs.---3D Tessellated Geometry---0.4---2014-09-14','2;1'),

/* implementation_level */ '2;1');

FILE_NAME(
/* name */ '628002606d31f94cc5e8b7f3',
/* time_stamp */ '2022-05-14T19:26:25+00:00',
/* author */ (''),
/* organization */ (''),
/* preprocessor_version */ 'ST-DEVELOPER v18.101',
/* originating_system */ '  ',
/* authorisation */ '  ');

FILE_SCHEMA (('AP242_MANAGED_MODEL_BASED_3D_ENGINEERING_MIM_LF { 1 0 10303 442 1 1 4 }'));
ENDSEC;

DATA;
#10=SHAPE_REPRESENTATION_RELATIONSHIP('','',#431,#11);
#11=ADVANCED_BREP_SHAPE_REPRESENTATION('',(#429),#725);
#12=PLANE('',#436);
#13=PLANE('',#440);
#14=PLANE('',#444);
#15=PLANE('',#448);
#16=PLANE('',#452);
#17=PLANE('',#456);
#18=PLANE('',#460);
#19=PLANE('',#464);
#20=PLANE('',#468);
#21=PLANE('',#472);
#22=PLANE('',#473);
#23=PLANE('',#474);
#24=LINE('',#606,#64);
#25=LINE('',#610,#65);
#26=LINE('',#612,#66);
#27=LINE('',#614,#67);
#28=LINE('',#616,#68);
#29=LINE('',#620,#69);
#30=LINE('',#624,#70);
#31=LINE('',#626,#71);
#32=LINE('',#628,#72);
#33=LINE('',#632,#73);
#34=LINE('',#636,#74);
#35=LINE('',#638,#75);
#36=LINE('',#640,#76);
#37=LINE('',#644,#77);
#38=LINE('',#648,#78);
#39=LINE('',#650,#79);
#40=LINE('',#652,#80);
#41=LINE('',#656,#81);
#42=LINE('',#660,#82);
#43=LINE('',#662,#83);
#44=LINE('',#664,#84);
#45=LINE('',#668,#85);
#46=LINE('',#672,#86);
#47=LINE('',#674,#87);
#48=LINE('',#676,#88);
#49=LINE('',#680,#89);
#50=LINE('',#684,#90);
#51=LINE('',#686,#91);
#52=LINE('',#688,#92);
#53=LINE('',#692,#93);
#54=LINE('',#696,#94);
#55=LINE('',#698,#95);
#56=LINE('',#700,#96);
#57=LINE('',#704,#97);
#58=LINE('',#708,#98);
#59=LINE('',#710,#99);
#60=LINE('',#712,#100);
#61=LINE('',#716,#101);
#62=LINE('',#720,#102);
#63=LINE('',#721,#103);
#64=VECTOR('',#481,1.);
#65=VECTOR('',#484,1.);
#66=VECTOR('',#487,1.);
#67=VECTOR('',#488,1.);
#68=VECTOR('',#489,1.);
#69=VECTOR('',#494,1.);
#70=VECTOR('',#499,1.);
#71=VECTOR('',#500,1.);
#72=VECTOR('',#501,1.);
#73=VECTOR('',#506,1.);
#74=VECTOR('',#511,1.);
#75=VECTOR('',#512,1.);
#76=VECTOR('',#513,1.);
#77=VECTOR('',#518,1.);
#78=VECTOR('',#523,1.);
#79=VECTOR('',#524,1.);
#80=VECTOR('',#525,1.);
#81=VECTOR('',#530,1.);
#82=VECTOR('',#535,1.);
#83=VECTOR('',#536,1.);
#84=VECTOR('',#537,1.);
#85=VECTOR('',#542,1.);
#86=VECTOR('',#547,1.);
#87=VECTOR('',#548,1.);
#88=VECTOR('',#549,1.);
#89=VECTOR('',#554,1.);
#90=VECTOR('',#559,1.);
#91=VECTOR('',#560,1.);
#92=VECTOR('',#561,1.);
#93=VECTOR('',#566,1.);
#94=VECTOR('',#571,1.);
#95=VECTOR('',#572,1.);
#96=VECTOR('',#573,1.);
#97=VECTOR('',#578,1.);
#98=VECTOR('',#583,1.);
#99=VECTOR('',#584,1.);
#100=VECTOR('',#585,1.);
#101=VECTOR('',#590,1.);
#102=VECTOR('',#595,1.);
#103=VECTOR('',#596,1.);
#104=ORIENTED_EDGE('',*,*,#224,.T.);
#105=ORIENTED_EDGE('',*,*,#225,.F.);
#106=ORIENTED_EDGE('',*,*,#226,.F.);
#107=ORIENTED_EDGE('',*,*,#227,.T.);
#108=ORIENTED_EDGE('',*,*,#228,.T.);
#109=ORIENTED_EDGE('',*,*,#229,.F.);
#110=ORIENTED_EDGE('',*,*,#230,.F.);
#111=ORIENTED_EDGE('',*,*,#225,.T.);
#112=ORIENTED_EDGE('',*,*,#231,.T.);
#113=ORIENTED_EDGE('',*,*,#232,.F.);
#114=ORIENTED_EDGE('',*,*,#233,.F.);
#115=ORIENTED_EDGE('',*,*,#229,.T.);
#116=ORIENTED_EDGE('',*,*,#234,.F.);
#117=ORIENTED_EDGE('',*,*,#235,.F.);
#118=ORIENTED_EDGE('',*,*,#236,.T.);
#119=ORIENTED_EDGE('',*,*,#232,.T.);
#120=ORIENTED_EDGE('',*,*,#237,.F.);
#121=ORIENTED_EDGE('',*,*,#238,.F.);
#122=ORIENTED_EDGE('',*,*,#239,.T.);
#123=ORIENTED_EDGE('',*,*,#235,.T.);
#124=ORIENTED_EDGE('',*,*,#240,.T.);
#125=ORIENTED_EDGE('',*,*,#241,.F.);
#126=ORIENTED_EDGE('',*,*,#242,.F.);
#127=ORIENTED_EDGE('',*,*,#238,.T.);
#128=ORIENTED_EDGE('',*,*,#243,.T.);
#129=ORIENTED_EDGE('',*,*,#244,.F.);
#130=ORIENTED_EDGE('',*,*,#245,.F.);
#131=ORIENTED_EDGE('',*,*,#241,.T.);
#132=ORIENTED_EDGE('',*,*,#246,.T.);
#133=ORIENTED_EDGE('',*,*,#247,.F.);
#134=ORIENTED_EDGE('',*,*,#248,.F.);
#135=ORIENTED_EDGE('',*,*,#244,.T.);
#136=ORIENTED_EDGE('',*,*,#249,.T.);
#137=ORIENTED_EDGE('',*,*,#250,.F.);
#138=ORIENTED_EDGE('',*,*,#251,.F.);
#139=ORIENTED_EDGE('',*,*,#247,.T.);
#140=ORIENTED_EDGE('',*,*,#252,.F.);
#141=ORIENTED_EDGE('',*,*,#253,.F.);
#142=ORIENTED_EDGE('',*,*,#254,.T.);
#143=ORIENTED_EDGE('',*,*,#250,.T.);
#144=ORIENTED_EDGE('',*,*,#255,.T.);
#145=ORIENTED_EDGE('',*,*,#256,.F.);
#146=ORIENTED_EDGE('',*,*,#257,.F.);
#147=ORIENTED_EDGE('',*,*,#253,.T.);
#148=ORIENTED_EDGE('',*,*,#258,.F.);
#149=ORIENTED_EDGE('',*,*,#259,.F.);
#150=ORIENTED_EDGE('',*,*,#260,.T.);
#151=ORIENTED_EDGE('',*,*,#256,.T.);
#152=ORIENTED_EDGE('',*,*,#261,.T.);
#153=ORIENTED_EDGE('',*,*,#262,.F.);
#154=ORIENTED_EDGE('',*,*,#263,.F.);
#155=ORIENTED_EDGE('',*,*,#259,.T.);
#156=ORIENTED_EDGE('',*,*,#264,.T.);
#157=ORIENTED_EDGE('',*,*,#265,.F.);
#158=ORIENTED_EDGE('',*,*,#266,.F.);
#159=ORIENTED_EDGE('',*,*,#262,.T.);
#160=ORIENTED_EDGE('',*,*,#267,.T.);
#161=ORIENTED_EDGE('',*,*,#268,.F.);
#162=ORIENTED_EDGE('',*,*,#269,.F.);
#163=ORIENTED_EDGE('',*,*,#265,.T.);
#164=ORIENTED_EDGE('',*,*,#270,.T.);
#165=ORIENTED_EDGE('',*,*,#271,.F.);
#166=ORIENTED_EDGE('',*,*,#272,.F.);
#167=ORIENTED_EDGE('',*,*,#268,.T.);
#168=ORIENTED_EDGE('',*,*,#273,.T.);
#169=ORIENTED_EDGE('',*,*,#274,.F.);
#170=ORIENTED_EDGE('',*,*,#275,.F.);
#171=ORIENTED_EDGE('',*,*,#271,.T.);
#172=ORIENTED_EDGE('',*,*,#276,.F.);
#173=ORIENTED_EDGE('',*,*,#277,.F.);
#174=ORIENTED_EDGE('',*,*,#278,.T.);
#175=ORIENTED_EDGE('',*,*,#274,.T.);
#176=ORIENTED_EDGE('',*,*,#279,.T.);
#177=ORIENTED_EDGE('',*,*,#280,.F.);
#178=ORIENTED_EDGE('',*,*,#281,.F.);
#179=ORIENTED_EDGE('',*,*,#277,.T.);
#180=ORIENTED_EDGE('',*,*,#282,.T.);
#181=ORIENTED_EDGE('',*,*,#227,.F.);
#182=ORIENTED_EDGE('',*,*,#283,.F.);
#183=ORIENTED_EDGE('',*,*,#280,.T.);
#184=ORIENTED_EDGE('',*,*,#226,.T.);
#185=ORIENTED_EDGE('',*,*,#230,.T.);
#186=ORIENTED_EDGE('',*,*,#233,.T.);
#187=ORIENTED_EDGE('',*,*,#236,.F.);
#188=ORIENTED_EDGE('',*,*,#239,.F.);
#189=ORIENTED_EDGE('',*,*,#242,.T.);
#190=ORIENTED_EDGE('',*,*,#245,.T.);
#191=ORIENTED_EDGE('',*,*,#248,.T.);
#192=ORIENTED_EDGE('',*,*,#251,.T.);
#193=ORIENTED_EDGE('',*,*,#254,.F.);
#194=ORIENTED_EDGE('',*,*,#257,.T.);
#195=ORIENTED_EDGE('',*,*,#260,.F.);
#196=ORIENTED_EDGE('',*,*,#263,.T.);
#197=ORIENTED_EDGE('',*,*,#266,.T.);
#198=ORIENTED_EDGE('',*,*,#269,.T.);
#199=ORIENTED_EDGE('',*,*,#272,.T.);
#200=ORIENTED_EDGE('',*,*,#275,.T.);
#201=ORIENTED_EDGE('',*,*,#278,.F.);
#202=ORIENTED_EDGE('',*,*,#281,.T.);
#203=ORIENTED_EDGE('',*,*,#283,.T.);
#204=ORIENTED_EDGE('',*,*,#224,.F.);
#205=ORIENTED_EDGE('',*,*,#282,.F.);
#206=ORIENTED_EDGE('',*,*,#279,.F.);
#207=ORIENTED_EDGE('',*,*,#276,.T.);
#208=ORIENTED_EDGE('',*,*,#273,.F.);
#209=ORIENTED_EDGE('',*,*,#270,.F.);
#210=ORIENTED_EDGE('',*,*,#267,.F.);
#211=ORIENTED_EDGE('',*,*,#264,.F.);
#212=ORIENTED_EDGE('',*,*,#261,.F.);
#213=ORIENTED_EDGE('',*,*,#258,.T.);
#214=ORIENTED_EDGE('',*,*,#255,.F.);
#215=ORIENTED_EDGE('',*,*,#252,.T.);
#216=ORIENTED_EDGE('',*,*,#249,.F.);
#217=ORIENTED_EDGE('',*,*,#246,.F.);
#218=ORIENTED_EDGE('',*,*,#243,.F.);
#219=ORIENTED_EDGE('',*,*,#240,.F.);
#220=ORIENTED_EDGE('',*,*,#237,.T.);
#221=ORIENTED_EDGE('',*,*,#234,.T.);
#222=ORIENTED_EDGE('',*,*,#231,.F.);
#223=ORIENTED_EDGE('',*,*,#228,.F.);
#224=EDGE_CURVE('',#284,#285,#324,.T.);
#225=EDGE_CURVE('',#286,#285,#24,.T.);
#226=EDGE_CURVE('',#287,#286,#325,.T.);
#227=EDGE_CURVE('',#287,#284,#25,.T.);
#228=EDGE_CURVE('',#285,#288,#26,.T.);
#229=EDGE_CURVE('',#289,#288,#27,.T.);
#230=EDGE_CURVE('',#286,#289,#28,.T.);
#231=EDGE_CURVE('',#288,#290,#326,.T.);
#232=EDGE_CURVE('',#291,#290,#29,.T.);
#233=EDGE_CURVE('',#289,#291,#327,.T.);
#234=EDGE_CURVE('',#292,#290,#30,.T.);
#235=EDGE_CURVE('',#293,#292,#31,.T.);
#236=EDGE_CURVE('',#293,#291,#32,.T.);
#237=EDGE_CURVE('',#294,#292,#328,.T.);
#238=EDGE_CURVE('',#295,#294,#33,.T.);
#239=EDGE_CURVE('',#295,#293,#329,.T.);
#240=EDGE_CURVE('',#294,#296,#34,.T.);
#241=EDGE_CURVE('',#297,#296,#35,.T.);
#242=EDGE_CURVE('',#295,#297,#36,.T.);
#243=EDGE_CURVE('',#296,#298,#330,.T.);
#244=EDGE_CURVE('',#299,#298,#37,.T.);
#245=EDGE_CURVE('',#297,#299,#331,.T.);
#246=EDGE_CURVE('',#298,#300,#38,.T.);
#247=EDGE_CURVE('',#301,#300,#39,.T.);
#248=EDGE_CURVE('',#299,#301,#40,.T.);
#249=EDGE_CURVE('',#300,#302,#332,.T.);
#250=EDGE_CURVE('',#303,#302,#41,.T.);
#251=EDGE_CURVE('',#301,#303,#333,.T.);
#252=EDGE_CURVE('',#304,#302,#42,.T.);
#253=EDGE_CURVE('',#305,#304,#43,.T.);
#254=EDGE_CURVE('',#305,#303,#44,.T.);
#255=EDGE_CURVE('',#304,#306,#334,.T.);
#256=EDGE_CURVE('',#307,#306,#45,.T.);
#257=EDGE_CURVE('',#305,#307,#335,.T.);
#258=EDGE_CURVE('',#308,#306,#46,.T.);
#259=EDGE_CURVE('',#309,#308,#47,.T.);
#260=EDGE_CURVE('',#309,#307,#48,.T.);
#261=EDGE_CURVE('',#308,#310,#336,.T.);
#262=EDGE_CURVE('',#311,#310,#49,.T.);
#263=EDGE_CURVE('',#309,#311,#337,.T.);
#264=EDGE_CURVE('',#310,#312,#50,.T.);
#265=EDGE_CURVE('',#313,#312,#51,.T.);
#266=EDGE_CURVE('',#311,#313,#52,.T.);
#267=EDGE_CURVE('',#312,#314,#338,.T.);
#268=EDGE_CURVE('',#315,#314,#53,.T.);
#269=EDGE_CURVE('',#313,#315,#339,.T.);
#270=EDGE_CURVE('',#314,#316,#54,.T.);
#271=EDGE_CURVE('',#317,#316,#55,.T.);
#272=EDGE_CURVE('',#315,#317,#56,.T.);
#273=EDGE_CURVE('',#316,#318,#340,.T.);
#274=EDGE_CURVE('',#319,#318,#57,.T.);
#275=EDGE_CURVE('',#317,#319,#341,.T.);
#276=EDGE_CURVE('',#320,#318,#58,.T.);
#277=EDGE_CURVE('',#321,#320,#59,.T.);
#278=EDGE_CURVE('',#321,#319,#60,.T.);
#279=EDGE_CURVE('',#320,#322,#342,.T.);
#280=EDGE_CURVE('',#323,#322,#61,.T.);
#281=EDGE_CURVE('',#321,#323,#343,.T.);
#282=EDGE_CURVE('',#322,#284,#62,.T.);
#283=EDGE_CURVE('',#323,#287,#63,.T.);
#284=VERTEX_POINT('',#604);
#285=VERTEX_POINT('',#605);
#286=VERTEX_POINT('',#607);
#287=VERTEX_POINT('',#609);
#288=VERTEX_POINT('',#613);
#289=VERTEX_POINT('',#615);
#290=VERTEX_POINT('',#619);
#291=VERTEX_POINT('',#621);
#292=VERTEX_POINT('',#625);
#293=VERTEX_POINT('',#627);
#294=VERTEX_POINT('',#631);
#295=VERTEX_POINT('',#633);
#296=VERTEX_POINT('',#637);
#297=VERTEX_POINT('',#639);
#298=VERTEX_POINT('',#643);
#299=VERTEX_POINT('',#645);
#300=VERTEX_POINT('',#649);
#301=VERTEX_POINT('',#651);
#302=VERTEX_POINT('',#655);
#303=VERTEX_POINT('',#657);
#304=VERTEX_POINT('',#661);
#305=VERTEX_POINT('',#663);
#306=VERTEX_POINT('',#667);
#307=VERTEX_POINT('',#669);
#308=VERTEX_POINT('',#673);
#309=VERTEX_POINT('',#675);
#310=VERTEX_POINT('',#679);
#311=VERTEX_POINT('',#681);
#312=VERTEX_POINT('',#685);
#313=VERTEX_POINT('',#687);
#314=VERTEX_POINT('',#691);
#315=VERTEX_POINT('',#693);
#316=VERTEX_POINT('',#697);
#317=VERTEX_POINT('',#699);
#318=VERTEX_POINT('',#703);
#319=VERTEX_POINT('',#705);
#320=VERTEX_POINT('',#709);
#321=VERTEX_POINT('',#711);
#322=VERTEX_POINT('',#715);
#323=VERTEX_POINT('',#717);
#324=CIRCLE('',#434,0.00100000000000001);
#325=CIRCLE('',#435,0.00100000000000001);
#326=CIRCLE('',#438,0.001);
#327=CIRCLE('',#439,0.001);
#328=CIRCLE('',#442,0.00525);
#329=CIRCLE('',#443,0.00525);
#330=CIRCLE('',#446,0.00100000000000001);
#331=CIRCLE('',#447,0.00100000000000001);
#332=CIRCLE('',#450,0.001);
#333=CIRCLE('',#451,0.001);
#334=CIRCLE('',#454,0.00100000000000002);
#335=CIRCLE('',#455,0.00100000000000002);
#336=CIRCLE('',#458,0.00100000000000001);
#337=CIRCLE('',#459,0.00100000000000001);
#338=CIRCLE('',#462,0.00100000000000002);
#339=CIRCLE('',#463,0.00100000000000002);
#340=CIRCLE('',#466,0.00100000000000001);
#341=CIRCLE('',#467,0.00100000000000001);
#342=CIRCLE('',#470,0.00525);
#343=CIRCLE('',#471,0.00525);
#344=EDGE_LOOP('',(#104,#105,#106,#107));
#345=EDGE_LOOP('',(#108,#109,#110,#111));
#346=EDGE_LOOP('',(#112,#113,#114,#115));
#347=EDGE_LOOP('',(#116,#117,#118,#119));
#348=EDGE_LOOP('',(#120,#121,#122,#123));
#349=EDGE_LOOP('',(#124,#125,#126,#127));
#350=EDGE_LOOP('',(#128,#129,#130,#131));
#351=EDGE_LOOP('',(#132,#133,#134,#135));
#352=EDGE_LOOP('',(#136,#137,#138,#139));
#353=EDGE_LOOP('',(#140,#141,#142,#143));
#354=EDGE_LOOP('',(#144,#145,#146,#147));
#355=EDGE_LOOP('',(#148,#149,#150,#151));
#356=EDGE_LOOP('',(#152,#153,#154,#155));
#357=EDGE_LOOP('',(#156,#157,#158,#159));
#358=EDGE_LOOP('',(#160,#161,#162,#163));
#359=EDGE_LOOP('',(#164,#165,#166,#167));
#360=EDGE_LOOP('',(#168,#169,#170,#171));
#361=EDGE_LOOP('',(#172,#173,#174,#175));
#362=EDGE_LOOP('',(#176,#177,#178,#179));
#363=EDGE_LOOP('',(#180,#181,#182,#183));
#364=EDGE_LOOP('',(#184,#185,#186,#187,#188,#189,#190,#191,#192,#193,#194,
#195,#196,#197,#198,#199,#200,#201,#202,#203));
#365=EDGE_LOOP('',(#204,#205,#206,#207,#208,#209,#210,#211,#212,#213,#214,
#215,#216,#217,#218,#219,#220,#221,#222,#223));
#366=FACE_BOUND('',#344,.T.);
#367=FACE_BOUND('',#345,.T.);
#368=FACE_BOUND('',#346,.T.);
#369=FACE_BOUND('',#347,.T.);
#370=FACE_BOUND('',#348,.T.);
#371=FACE_BOUND('',#349,.T.);
#372=FACE_BOUND('',#350,.T.);
#373=FACE_BOUND('',#351,.T.);
#374=FACE_BOUND('',#352,.T.);
#375=FACE_BOUND('',#353,.T.);
#376=FACE_BOUND('',#354,.T.);
#377=FACE_BOUND('',#355,.T.);
#378=FACE_BOUND('',#356,.T.);
#379=FACE_BOUND('',#357,.T.);
#380=FACE_BOUND('',#358,.T.);
#381=FACE_BOUND('',#359,.T.);
#382=FACE_BOUND('',#360,.T.);
#383=FACE_BOUND('',#361,.T.);
#384=FACE_BOUND('',#362,.T.);
#385=FACE_BOUND('',#363,.T.);
#386=FACE_BOUND('',#364,.T.);
#387=FACE_BOUND('',#365,.T.);
#388=CYLINDRICAL_SURFACE('',#433,0.00100000000000001);
#389=CYLINDRICAL_SURFACE('',#437,0.001);
#390=CYLINDRICAL_SURFACE('',#441,0.00525);
#391=CYLINDRICAL_SURFACE('',#445,0.00100000000000001);
#392=CYLINDRICAL_SURFACE('',#449,0.001);
#393=CYLINDRICAL_SURFACE('',#453,0.00100000000000002);
#394=CYLINDRICAL_SURFACE('',#457,0.00100000000000001);
#395=CYLINDRICAL_SURFACE('',#461,0.00100000000000002);
#396=CYLINDRICAL_SURFACE('',#465,0.00100000000000001);
#397=CYLINDRICAL_SURFACE('',#469,0.00525);
#398=ADVANCED_FACE('',(#366),#388,.T.);
#399=ADVANCED_FACE('',(#367),#12,.F.);
#400=ADVANCED_FACE('',(#368),#389,.T.);
#401=ADVANCED_FACE('',(#369),#13,.T.);
#402=ADVANCED_FACE('',(#370),#390,.F.);
#403=ADVANCED_FACE('',(#371),#14,.F.);
#404=ADVANCED_FACE('',(#372),#391,.T.);
#405=ADVANCED_FACE('',(#373),#15,.F.);
#406=ADVANCED_FACE('',(#374),#392,.T.);
#407=ADVANCED_FACE('',(#375),#16,.T.);
#408=ADVANCED_FACE('',(#376),#393,.T.);
#409=ADVANCED_FACE('',(#377),#17,.T.);
#410=ADVANCED_FACE('',(#378),#394,.T.);
#411=ADVANCED_FACE('',(#379),#18,.F.);
#412=ADVANCED_FACE('',(#380),#395,.T.);
#413=ADVANCED_FACE('',(#381),#19,.F.);
#414=ADVANCED_FACE('',(#382),#396,.T.);
#415=ADVANCED_FACE('',(#383),#20,.T.);
#416=ADVANCED_FACE('',(#384),#397,.F.);
#417=ADVANCED_FACE('',(#385),#21,.F.);
#418=ADVANCED_FACE('',(#386),#22,.T.);
#419=ADVANCED_FACE('',(#387),#23,.F.);
#420=CLOSED_SHELL('',(#398,#399,#400,#401,#402,#403,#404,#405,#406,#407,
#408,#409,#410,#411,#412,#413,#414,#415,#416,#417,#418,#419));
#421=STYLED_ITEM('',(#422),#429);
#422=PRESENTATION_STYLE_ASSIGNMENT((#423));
#423=SURFACE_STYLE_USAGE(.BOTH.,#424);
#424=SURFACE_SIDE_STYLE('',(#425));
#425=SURFACE_STYLE_FILL_AREA(#426);
#426=FILL_AREA_STYLE('',(#427));
#427=FILL_AREA_STYLE_COLOUR('',#428);
#428=COLOUR_RGB('',0.917647058823529,0.917647058823529,0.917647058823529);
#429=MANIFOLD_SOLID_BREP('DSCH120-M100',#420);
#430=SHAPE_DEFINITION_REPRESENTATION(#730,#431);
#431=SHAPE_REPRESENTATION('DSCH120-M100',(#432),#725);
#432=AXIS2_PLACEMENT_3D('',#601,#475,#476);
#433=AXIS2_PLACEMENT_3D('',#602,#477,#478);
#434=AXIS2_PLACEMENT_3D('',#603,#479,#480);
#435=AXIS2_PLACEMENT_3D('',#608,#482,#483);
#436=AXIS2_PLACEMENT_3D('',#611,#485,#486);
#437=AXIS2_PLACEMENT_3D('',#617,#490,#491);
#438=AXIS2_PLACEMENT_3D('',#618,#492,#493);
#439=AXIS2_PLACEMENT_3D('',#622,#495,#496);
#440=AXIS2_PLACEMENT_3D('',#623,#497,#498);
#441=AXIS2_PLACEMENT_3D('',#629,#502,#503);
#442=AXIS2_PLACEMENT_3D('',#630,#504,#505);
#443=AXIS2_PLACEMENT_3D('',#634,#507,#508);
#444=AXIS2_PLACEMENT_3D('',#635,#509,#510);
#445=AXIS2_PLACEMENT_3D('',#641,#514,#515);
#446=AXIS2_PLACEMENT_3D('',#642,#516,#517);
#447=AXIS2_PLACEMENT_3D('',#646,#519,#520);
#448=AXIS2_PLACEMENT_3D('',#647,#521,#522);
#449=AXIS2_PLACEMENT_3D('',#653,#526,#527);
#450=AXIS2_PLACEMENT_3D('',#654,#528,#529);
#451=AXIS2_PLACEMENT_3D('',#658,#531,#532);
#452=AXIS2_PLACEMENT_3D('',#659,#533,#534);
#453=AXIS2_PLACEMENT_3D('',#665,#538,#539);
#454=AXIS2_PLACEMENT_3D('',#666,#540,#541);
#455=AXIS2_PLACEMENT_3D('',#670,#543,#544);
#456=AXIS2_PLACEMENT_3D('',#671,#545,#546);
#457=AXIS2_PLACEMENT_3D('',#677,#550,#551);
#458=AXIS2_PLACEMENT_3D('',#678,#552,#553);
#459=AXIS2_PLACEMENT_3D('',#682,#555,#556);
#460=AXIS2_PLACEMENT_3D('',#683,#557,#558);
#461=AXIS2_PLACEMENT_3D('',#689,#562,#563);
#462=AXIS2_PLACEMENT_3D('',#690,#564,#565);
#463=AXIS2_PLACEMENT_3D('',#694,#567,#568);
#464=AXIS2_PLACEMENT_3D('',#695,#569,#570);
#465=AXIS2_PLACEMENT_3D('',#701,#574,#575);
#466=AXIS2_PLACEMENT_3D('',#702,#576,#577);
#467=AXIS2_PLACEMENT_3D('',#706,#579,#580);
#468=AXIS2_PLACEMENT_3D('',#707,#581,#582);
#469=AXIS2_PLACEMENT_3D('',#713,#586,#587);
#470=AXIS2_PLACEMENT_3D('',#714,#588,#589);
#471=AXIS2_PLACEMENT_3D('',#718,#591,#592);
#472=AXIS2_PLACEMENT_3D('',#719,#593,#594);
#473=AXIS2_PLACEMENT_3D('',#722,#597,#598);
#474=AXIS2_PLACEMENT_3D('',#723,#599,#600);
#475=DIRECTION('',(0.,0.,1.));
#476=DIRECTION('',(1.,0.,0.));
#477=DIRECTION('',(0.,0.,-1.));
#478=DIRECTION('',(-1.,0.,0.));
#479=DIRECTION('',(0.,0.,1.));
#480=DIRECTION('',(1.,0.,0.));
#481=DIRECTION('',(0.,0.,-1.));
#482=DIRECTION('',(0.,0.,1.));
#483=DIRECTION('',(1.,0.,0.));
#484=DIRECTION('',(0.,0.,-1.));
#485=DIRECTION('',(0.,-1.,0.));
#486=DIRECTION('',(0.,0.,-1.));
#487=DIRECTION('',(-1.,0.,0.));
#488=DIRECTION('',(0.,0.,-1.));
#489=DIRECTION('',(-1.,0.,0.));
#490=DIRECTION('',(0.,0.,-1.));
#491=DIRECTION('',(-1.,0.,0.));
#492=DIRECTION('',(0.,0.,1.));
#493=DIRECTION('',(1.,0.,0.));
#494=DIRECTION('',(0.,0.,-1.));
#495=DIRECTION('',(0.,0.,1.));
#496=DIRECTION('',(1.,0.,0.));
#497=DIRECTION('',(-1.,-2.04085114820801E-16,0.));
#498=DIRECTION('',(2.04085114820801E-16,-1.,0.));
#499=DIRECTION('',(-2.04085114820801E-16,1.,0.));
#500=DIRECTION('',(0.,0.,-1.));
#501=DIRECTION('',(-2.04085114820801E-16,1.,0.));
#502=DIRECTION('',(0.,0.,-1.));
#503=DIRECTION('',(-1.,0.,0.));
#504=DIRECTION('',(0.,0.,1.));
#505=DIRECTION('',(1.,0.,0.));
#506=DIRECTION('',(0.,0.,-1.));
#507=DIRECTION('',(0.,0.,1.));
#508=DIRECTION('',(1.,0.,0.));
#509=DIRECTION('',(-1.,0.,0.));
#510=DIRECTION('',(0.,0.,1.));
#511=DIRECTION('',(0.,1.,0.));
#512=DIRECTION('',(0.,0.,-1.));
#513=DIRECTION('',(0.,1.,0.));
#514=DIRECTION('',(0.,0.,-1.));
#515=DIRECTION('',(-1.,0.,0.));
#516=DIRECTION('',(0.,0.,1.));
#517=DIRECTION('',(1.,0.,0.));
#518=DIRECTION('',(0.,0.,-1.));
#519=DIRECTION('',(0.,0.,1.));
#520=DIRECTION('',(1.,0.,0.));
#521=DIRECTION('',(0.,-1.,0.));
#522=DIRECTION('',(0.,0.,-1.));
#523=DIRECTION('',(-1.,0.,0.));
#524=DIRECTION('',(0.,0.,-1.));
#525=DIRECTION('',(-1.,0.,0.));
#526=DIRECTION('',(0.,0.,-1.));
#527=DIRECTION('',(-1.,0.,0.));
#528=DIRECTION('',(0.,0.,1.));
#529=DIRECTION('',(1.,0.,0.));
#530=DIRECTION('',(0.,0.,-1.));
#531=DIRECTION('',(0.,0.,1.));
#532=DIRECTION('',(1.,0.,0.));
#533=DIRECTION('',(-1.,0.,0.));
#534=DIRECTION('',(0.,0.,1.));
#535=DIRECTION('',(0.,1.,0.));
#536=DIRECTION('',(0.,0.,-1.));
#537=DIRECTION('',(0.,1.,0.));
#538=DIRECTION('',(0.,0.,-1.));
#539=DIRECTION('',(-1.,0.,0.));
#540=DIRECTION('',(0.,0.,1.));
#541=DIRECTION('',(1.,0.,0.));
#542=DIRECTION('',(0.,0.,-1.));
#543=DIRECTION('',(0.,0.,1.));
#544=DIRECTION('',(1.,0.,0.));
#545=DIRECTION('',(9.6373526443156E-17,-1.,0.));
#546=DIRECTION('',(1.,9.6373526443156E-17,0.));
#547=DIRECTION('',(-1.,-9.6373526443156E-17,0.));
#548=DIRECTION('',(0.,0.,-1.));
#549=DIRECTION('',(-1.,-9.6373526443156E-17,0.));
#550=DIRECTION('',(0.,0.,-1.));
#551=DIRECTION('',(-1.,0.,0.));
#552=DIRECTION('',(0.,0.,1.));
#553=DIRECTION('',(1.,0.,0.));
#554=DIRECTION('',(0.,0.,-1.));
#555=DIRECTION('',(0.,0.,1.));
#556=DIRECTION('',(1.,0.,0.));
#557=DIRECTION('',(-1.,0.,0.));
#558=DIRECTION('',(0.,0.,1.));
#559=DIRECTION('',(0.,1.,0.));
#560=DIRECTION('',(0.,0.,-1.));
#561=DIRECTION('',(0.,1.,0.));
#562=DIRECTION('',(0.,0.,-1.));
#563=DIRECTION('',(-1.,0.,0.));
#564=DIRECTION('',(0.,0.,1.));
#565=DIRECTION('',(1.,0.,0.));
#566=DIRECTION('',(0.,0.,-1.));
#567=DIRECTION('',(0.,0.,1.));
#568=DIRECTION('',(1.,0.,0.));
#569=DIRECTION('',(0.,-1.,0.));
#570=DIRECTION('',(0.,0.,-1.));
#571=DIRECTION('',(-1.,0.,0.));
#572=DIRECTION('',(0.,0.,-1.));
#573=DIRECTION('',(-1.,0.,0.));
#574=DIRECTION('',(0.,0.,-1.));
#575=DIRECTION('',(-1.,0.,0.));
#576=DIRECTION('',(0.,0.,1.));
#577=DIRECTION('',(1.,0.,0.));
#578=DIRECTION('',(0.,0.,-1.));
#579=DIRECTION('',(0.,0.,1.));
#580=DIRECTION('',(1.,0.,0.));
#581=DIRECTION('',(-1.,0.,0.));
#582=DIRECTION('',(0.,0.,1.));
#583=DIRECTION('',(0.,1.,0.));
#584=DIRECTION('',(0.,0.,-1.));
#585=DIRECTION('',(0.,1.,0.));
#586=DIRECTION('',(0.,0.,-1.));
#587=DIRECTION('',(-1.,0.,0.));
#588=DIRECTION('',(0.,0.,-1.));
#589=DIRECTION('',(1.,0.,0.));
#590=DIRECTION('',(0.,0.,-1.));
#591=DIRECTION('',(0.,0.,-1.));
#592=DIRECTION('',(1.,0.,0.));
#593=DIRECTION('',(-1.,2.04085114820801E-16,0.));
#594=DIRECTION('',(-2.04085114820801E-16,-1.,0.));
#595=DIRECTION('',(2.04085114820801E-16,1.,0.));
#596=DIRECTION('',(2.04085114820801E-16,1.,0.));
#597=DIRECTION('',(0.,0.,1.));
#598=DIRECTION('',(1.,0.,0.));
#599=DIRECTION('',(0.,0.,1.));
#600=DIRECTION('',(1.,0.,0.));
#601=CARTESIAN_POINT('',(0.,0.,0.));
#602=CARTESIAN_POINT('',(0.00375,0.0085,0.001));
#603=CARTESIAN_POINT('',(0.00375,0.0085,0.));
#604=CARTESIAN_POINT('',(0.00475,0.0085,0.));
#605=CARTESIAN_POINT('',(0.00375,0.0095,0.));
#606=CARTESIAN_POINT('',(0.00375,0.0095,0.001));
#607=CARTESIAN_POINT('',(0.00375,0.0095,0.001));
#608=CARTESIAN_POINT('',(0.00375,0.0085,0.001));
#609=CARTESIAN_POINT('',(0.00475,0.0085,0.001));
#610=CARTESIAN_POINT('',(0.00475,0.0085,0.001));
#611=CARTESIAN_POINT('',(0.,0.0095,0.001));
#612=CARTESIAN_POINT('',(0.,0.0095,0.));
#613=CARTESIAN_POINT('',(-0.00375,0.0095,0.));
#614=CARTESIAN_POINT('',(-0.00375,0.0095,0.001));
#615=CARTESIAN_POINT('',(-0.00375,0.0095,0.001));
#616=CARTESIAN_POINT('',(0.,0.0095,0.001));
#617=CARTESIAN_POINT('',(-0.00375,0.0085,0.001));
#618=CARTESIAN_POINT('',(-0.00375,0.0085,0.));
#619=CARTESIAN_POINT('',(-0.00475,0.0085,0.));
#620=CARTESIAN_POINT('',(-0.00475,0.0085,0.001));
#621=CARTESIAN_POINT('',(-0.00475,0.0085,0.001));
#622=CARTESIAN_POINT('',(-0.00375,0.0085,0.001));
#623=CARTESIAN_POINT('',(-0.00475,0.00425,0.001));
#624=CARTESIAN_POINT('',(-0.00475,0.00425,0.));
#625=CARTESIAN_POINT('',(-0.00475,-1.96535757044936E-18,0.));
#626=CARTESIAN_POINT('',(-0.00475,-1.96535757044936E-18,0.001));
#627=CARTESIAN_POINT('',(-0.00475,-1.96535757044936E-18,0.001));
#628=CARTESIAN_POINT('',(-0.00475,0.00425,0.001));
#629=CARTESIAN_POINT('',(-0.01,-1.00094821612082E-18,0.001));
#630=CARTESIAN_POINT('',(-0.01,-1.00094821612082E-18,0.));
#631=CARTESIAN_POINT('',(-0.01525,-8.67361737988404E-19,0.));
#632=CARTESIAN_POINT('',(-0.01525,-8.67361737988404E-19,0.001));
#633=CARTESIAN_POINT('',(-0.01525,-8.67361737988404E-19,0.001));
#634=CARTESIAN_POINT('',(-0.01,-1.00094821612082E-18,0.001));
#635=CARTESIAN_POINT('',(-0.01525,0.00425,0.001));
#636=CARTESIAN_POINT('',(-0.01525,0.00425,0.));
#637=CARTESIAN_POINT('',(-0.01525,0.0085,0.));
#638=CARTESIAN_POINT('',(-0.01525,0.0085,0.001));
#639=CARTESIAN_POINT('',(-0.01525,0.0085,0.001));
#640=CARTESIAN_POINT('',(-0.01525,0.00425,0.001));
#641=CARTESIAN_POINT('',(-0.01625,0.0085,0.001));
#642=CARTESIAN_POINT('',(-0.01625,0.0085,0.));
#643=CARTESIAN_POINT('',(-0.01625,0.0095,0.));
#644=CARTESIAN_POINT('',(-0.01625,0.0095,0.001));
#645=CARTESIAN_POINT('',(-0.01625,0.0095,0.001));
#646=CARTESIAN_POINT('',(-0.01625,0.0085,0.001));
#647=CARTESIAN_POINT('',(-0.017125,0.0095,0.001));
#648=CARTESIAN_POINT('',(-0.017125,0.0095,0.));
#649=CARTESIAN_POINT('',(-0.018,0.0095,0.));
#650=CARTESIAN_POINT('',(-0.018,0.0095,0.001));
#651=CARTESIAN_POINT('',(-0.018,0.0095,0.001));
#652=CARTESIAN_POINT('',(-0.017125,0.0095,0.001));
#653=CARTESIAN_POINT('',(-0.018,0.0085,0.001));
#654=CARTESIAN_POINT('',(-0.018,0.0085,0.));
#655=CARTESIAN_POINT('',(-0.019,0.0085,0.));
#656=CARTESIAN_POINT('',(-0.019,0.0085,0.001));
#657=CARTESIAN_POINT('',(-0.019,0.0085,0.001));
#658=CARTESIAN_POINT('',(-0.018,0.0085,0.001));
#659=CARTESIAN_POINT('',(-0.019,-1.7347234759768E-18,0.001));
#660=CARTESIAN_POINT('',(-0.019,-1.7347234759768E-18,0.));
#661=CARTESIAN_POINT('',(-0.019,-0.0085,0.));
#662=CARTESIAN_POINT('',(-0.019,-0.0085,0.001));
#663=CARTESIAN_POINT('',(-0.019,-0.0085,0.001));
#664=CARTESIAN_POINT('',(-0.019,-1.7347234759768E-18,0.001));
#665=CARTESIAN_POINT('',(-0.018,-0.0085,0.001));
#666=CARTESIAN_POINT('',(-0.018,-0.0085,0.));
#667=CARTESIAN_POINT('',(-0.018,-0.0095,0.));
#668=CARTESIAN_POINT('',(-0.018,-0.0095,0.001));
#669=CARTESIAN_POINT('',(-0.018,-0.0095,0.001));
#670=CARTESIAN_POINT('',(-0.018,-0.0085,0.001));
#671=CARTESIAN_POINT('',(0.,-0.0095,0.001));
#672=CARTESIAN_POINT('',(0.,-0.0095,0.));
#673=CARTESIAN_POINT('',(0.018,-0.0095,0.));
#674=CARTESIAN_POINT('',(0.018,-0.0095,0.001));
#675=CARTESIAN_POINT('',(0.018,-0.0095,0.001));
#676=CARTESIAN_POINT('',(0.,-0.0095,0.001));
#677=CARTESIAN_POINT('',(0.018,-0.0085,0.001));
#678=CARTESIAN_POINT('',(0.018,-0.0085,0.));
#679=CARTESIAN_POINT('',(0.019,-0.0085,0.));
#680=CARTESIAN_POINT('',(0.019,-0.0085,0.001));
#681=CARTESIAN_POINT('',(0.019,-0.0085,0.001));
#682=CARTESIAN_POINT('',(0.018,-0.0085,0.001));
#683=CARTESIAN_POINT('',(0.019,1.7347234759768E-18,0.001));
#684=CARTESIAN_POINT('',(0.019,1.7347234759768E-18,0.));
#685=CARTESIAN_POINT('',(0.019,0.0085,0.));
#686=CARTESIAN_POINT('',(0.019,0.0085,0.001));
#687=CARTESIAN_POINT('',(0.019,0.0085,0.001));
#688=CARTESIAN_POINT('',(0.019,1.7347234759768E-18,0.001));
#689=CARTESIAN_POINT('',(0.018,0.0085,0.001));
#690=CARTESIAN_POINT('',(0.018,0.0085,0.));
#691=CARTESIAN_POINT('',(0.018,0.0095,0.));
#692=CARTESIAN_POINT('',(0.018,0.0095,0.001));
#693=CARTESIAN_POINT('',(0.018,0.0095,0.001));
#694=CARTESIAN_POINT('',(0.018,0.0085,0.001));
#695=CARTESIAN_POINT('',(0.017125,0.0095,0.001));
#696=CARTESIAN_POINT('',(0.017125,0.0095,0.));
#697=CARTESIAN_POINT('',(0.01625,0.0095,0.));
#698=CARTESIAN_POINT('',(0.01625,0.0095,0.001));
#699=CARTESIAN_POINT('',(0.01625,0.0095,0.001));
#700=CARTESIAN_POINT('',(0.017125,0.0095,0.001));
#701=CARTESIAN_POINT('',(0.01625,0.0085,0.001));
#702=CARTESIAN_POINT('',(0.01625,0.0085,0.));
#703=CARTESIAN_POINT('',(0.01525,0.0085,0.));
#704=CARTESIAN_POINT('',(0.01525,0.0085,0.001));
#705=CARTESIAN_POINT('',(0.01525,0.0085,0.001));
#706=CARTESIAN_POINT('',(0.01625,0.0085,0.001));
#707=CARTESIAN_POINT('',(0.01525,0.00425,0.001));
#708=CARTESIAN_POINT('',(0.01525,0.00425,0.));
#709=CARTESIAN_POINT('',(0.01525,-8.67361737988404E-19,0.));
#710=CARTESIAN_POINT('',(0.01525,-8.67361737988404E-19,0.001));
#711=CARTESIAN_POINT('',(0.01525,-8.67361737988404E-19,0.001));
#712=CARTESIAN_POINT('',(0.01525,0.00425,0.001));
#713=CARTESIAN_POINT('',(0.01,-1.00094821612082E-18,0.001));
#714=CARTESIAN_POINT('',(0.01,-1.00094821612082E-18,0.));
#715=CARTESIAN_POINT('',(0.00475,-6.79478431344641E-19,0.));
#716=CARTESIAN_POINT('',(0.00475,-6.79478431344641E-19,0.001));
#717=CARTESIAN_POINT('',(0.00475,-6.79478431344641E-19,0.001));
#718=CARTESIAN_POINT('',(0.01,-1.00094821612082E-18,0.001));
#719=CARTESIAN_POINT('',(0.00475,0.00425,0.001));
#720=CARTESIAN_POINT('',(0.00475,0.00425,0.));
#721=CARTESIAN_POINT('',(0.00475,0.00425,0.001));
#722=CARTESIAN_POINT('',(0.,0.,0.001));
#723=CARTESIAN_POINT('',(0.,0.,0.));
#724=MECHANICAL_DESIGN_GEOMETRIC_PRESENTATION_REPRESENTATION('',(#421),
#725);
#725=(
GEOMETRIC_REPRESENTATION_CONTEXT(3)
GLOBAL_UNCERTAINTY_ASSIGNED_CONTEXT((#726))
GLOBAL_UNIT_ASSIGNED_CONTEXT((#729,#728,#727))
REPRESENTATION_CONTEXT('DSCH120-M100','TOP_LEVEL_ASSEMBLY_PART')
);
#726=UNCERTAINTY_MEASURE_WITH_UNIT(LENGTH_MEASURE(5.E-6),#729,
'DISTANCE_ACCURACY_VALUE','Maximum Tolerance applied to model');
#727=(
NAMED_UNIT(*)
SI_UNIT($,.STERADIAN.)
SOLID_ANGLE_UNIT()
);
#728=(
NAMED_UNIT(*)
PLANE_ANGLE_UNIT()
SI_UNIT($,.RADIAN.)
);
#729=(
LENGTH_UNIT()
NAMED_UNIT(*)
SI_UNIT($,.METRE.)
);
#730=PRODUCT_DEFINITION_SHAPE('','',#731);
#731=PRODUCT_DEFINITION('','',#733,#732);
#732=PRODUCT_DEFINITION_CONTEXT('',#739,'design');
#733=PRODUCT_DEFINITION_FORMATION_WITH_SPECIFIED_SOURCE('','',#735,
 .NOT_KNOWN.);
#734=PRODUCT_RELATED_PRODUCT_CATEGORY('','',(#735));
#735=PRODUCT('DSCH120-M100','DSCH120-M100','DSCH120-M100',(#737));
#736=PRODUCT_CATEGORY('','');
#737=PRODUCT_CONTEXT('',#739,'mechanical');
#738=APPLICATION_PROTOCOL_DEFINITION('international standard',
'ap242_managed_model_based_3d_engineering',2011,#739);
#739=APPLICATION_CONTEXT('managed model based 3d engineering');
ENDSEC;
END-ISO-10303-21;
