ISO-10303-21;
HEADER;
/* Generated by software containing ST-Developer
 * from STEP Tools, Inc. (www.steptools.com) 
 */
/* OPTION: using custom renumber hook */

FILE_DESCRIPTION(
/* description */ ('STEP AP242',
'CAx-IF Rec.Pracs.---Representation and Presentation of Product Manufa
cturing Information (PMI)---4.0---2014-10-13',
'CAx-IF Rec.Pracs.---3D Tessellated Geometry---0.4---2014-09-14','2;1'),

/* implementation_level */ '2;1');

FILE_NAME(
/* name */ '628031be234e7c780e9e9297',
/* time_stamp */ '2022-05-14T22:48:30+00:00',
/* author */ (''),
/* organization */ (''),
/* preprocessor_version */ 'ST-DEVELOPER v18.101',
/* originating_system */ '  ',
/* authorisation */ '  ');

FILE_SCHEMA (('AP242_MANAGED_MODEL_BASED_3D_ENGINEERING_MIM_LF { 1 0 10303 442 1 1 4 }'));
ENDSEC;

DATA;
#10=SHAPE_REPRESENTATION_RELATIONSHIP('','',#363,#11);
#11=ADVANCED_BREP_SHAPE_REPRESENTATION('',(#361),#577);
#12=CIRCLE('',#370,0.0045);
#13=CIRCLE('',#371,0.0045);
#14=CIRCLE('',#376,0.0045);
#15=CIRCLE('',#377,0.0045);
#16=CYLINDRICAL_SURFACE('',#369,0.0045);
#17=CYLINDRICAL_SURFACE('',#375,0.0045);
#18=ORIENTED_EDGE('',*,*,#114,.F.);
#19=ORIENTED_EDGE('',*,*,#115,.F.);
#20=ORIENTED_EDGE('',*,*,#116,.T.);
#21=ORIENTED_EDGE('',*,*,#117,.T.);
#22=ORIENTED_EDGE('',*,*,#118,.T.);
#23=ORIENTED_EDGE('',*,*,#119,.F.);
#24=ORIENTED_EDGE('',*,*,#120,.F.);
#25=ORIENTED_EDGE('',*,*,#115,.T.);
#26=ORIENTED_EDGE('',*,*,#121,.T.);
#27=ORIENTED_EDGE('',*,*,#122,.T.);
#28=ORIENTED_EDGE('',*,*,#123,.F.);
#29=ORIENTED_EDGE('',*,*,#119,.T.);
#30=ORIENTED_EDGE('',*,*,#124,.T.);
#31=ORIENTED_EDGE('',*,*,#125,.T.);
#32=ORIENTED_EDGE('',*,*,#126,.F.);
#33=ORIENTED_EDGE('',*,*,#127,.F.);
#34=ORIENTED_EDGE('',*,*,#128,.T.);
#35=ORIENTED_EDGE('',*,*,#129,.F.);
#36=ORIENTED_EDGE('',*,*,#130,.F.);
#37=ORIENTED_EDGE('',*,*,#127,.T.);
#38=ORIENTED_EDGE('',*,*,#131,.T.);
#39=ORIENTED_EDGE('',*,*,#132,.T.);
#40=ORIENTED_EDGE('',*,*,#133,.F.);
#41=ORIENTED_EDGE('',*,*,#129,.T.);
#42=ORIENTED_EDGE('',*,*,#134,.T.);
#43=ORIENTED_EDGE('',*,*,#135,.T.);
#44=ORIENTED_EDGE('',*,*,#136,.F.);
#45=ORIENTED_EDGE('',*,*,#137,.T.);
#46=ORIENTED_EDGE('',*,*,#138,.T.);
#47=ORIENTED_EDGE('',*,*,#139,.T.);
#48=ORIENTED_EDGE('',*,*,#140,.F.);
#49=ORIENTED_EDGE('',*,*,#141,.F.);
#50=ORIENTED_EDGE('',*,*,#142,.F.);
#51=ORIENTED_EDGE('',*,*,#143,.F.);
#52=ORIENTED_EDGE('',*,*,#144,.T.);
#53=ORIENTED_EDGE('',*,*,#141,.T.);
#54=ORIENTED_EDGE('',*,*,#145,.T.);
#55=ORIENTED_EDGE('',*,*,#146,.T.);
#56=ORIENTED_EDGE('',*,*,#147,.F.);
#57=ORIENTED_EDGE('',*,*,#143,.T.);
#58=ORIENTED_EDGE('',*,*,#148,.F.);
#59=ORIENTED_EDGE('',*,*,#149,.T.);
#60=ORIENTED_EDGE('',*,*,#150,.T.);
#61=ORIENTED_EDGE('',*,*,#151,.F.);
#62=ORIENTED_EDGE('',*,*,#152,.F.);
#63=ORIENTED_EDGE('',*,*,#117,.F.);
#64=ORIENTED_EDGE('',*,*,#153,.T.);
#65=ORIENTED_EDGE('',*,*,#151,.T.);
#66=ORIENTED_EDGE('',*,*,#123,.T.);
#67=ORIENTED_EDGE('',*,*,#154,.T.);
#68=ORIENTED_EDGE('',*,*,#124,.F.);
#69=ORIENTED_EDGE('',*,*,#130,.T.);
#70=ORIENTED_EDGE('',*,*,#133,.T.);
#71=ORIENTED_EDGE('',*,*,#155,.T.);
#72=ORIENTED_EDGE('',*,*,#136,.T.);
#73=ORIENTED_EDGE('',*,*,#156,.T.);
#74=ORIENTED_EDGE('',*,*,#138,.F.);
#75=ORIENTED_EDGE('',*,*,#144,.F.);
#76=ORIENTED_EDGE('',*,*,#147,.T.);
#77=ORIENTED_EDGE('',*,*,#157,.T.);
#78=ORIENTED_EDGE('',*,*,#148,.T.);
#79=ORIENTED_EDGE('',*,*,#153,.F.);
#80=ORIENTED_EDGE('',*,*,#116,.F.);
#81=ORIENTED_EDGE('',*,*,#120,.T.);
#82=ORIENTED_EDGE('',*,*,#126,.T.);
#83=ORIENTED_EDGE('',*,*,#158,.T.);
#84=ORIENTED_EDGE('',*,*,#121,.F.);
#85=ORIENTED_EDGE('',*,*,#118,.F.);
#86=ORIENTED_EDGE('',*,*,#114,.T.);
#87=ORIENTED_EDGE('',*,*,#152,.T.);
#88=ORIENTED_EDGE('',*,*,#150,.F.);
#89=ORIENTED_EDGE('',*,*,#159,.T.);
#90=ORIENTED_EDGE('',*,*,#145,.F.);
#91=ORIENTED_EDGE('',*,*,#142,.T.);
#92=ORIENTED_EDGE('',*,*,#140,.T.);
#93=ORIENTED_EDGE('',*,*,#160,.T.);
#94=ORIENTED_EDGE('',*,*,#134,.F.);
#95=ORIENTED_EDGE('',*,*,#161,.T.);
#96=ORIENTED_EDGE('',*,*,#131,.F.);
#97=ORIENTED_EDGE('',*,*,#128,.F.);
#98=ORIENTED_EDGE('',*,*,#155,.F.);
#99=ORIENTED_EDGE('',*,*,#132,.F.);
#100=ORIENTED_EDGE('',*,*,#161,.F.);
#101=ORIENTED_EDGE('',*,*,#137,.F.);
#102=ORIENTED_EDGE('',*,*,#157,.F.);
#103=ORIENTED_EDGE('',*,*,#146,.F.);
#104=ORIENTED_EDGE('',*,*,#159,.F.);
#105=ORIENTED_EDGE('',*,*,#149,.F.);
#106=ORIENTED_EDGE('',*,*,#154,.F.);
#107=ORIENTED_EDGE('',*,*,#122,.F.);
#108=ORIENTED_EDGE('',*,*,#158,.F.);
#109=ORIENTED_EDGE('',*,*,#125,.F.);
#110=ORIENTED_EDGE('',*,*,#156,.F.);
#111=ORIENTED_EDGE('',*,*,#135,.F.);
#112=ORIENTED_EDGE('',*,*,#160,.F.);
#113=ORIENTED_EDGE('',*,*,#139,.F.);
#114=EDGE_CURVE('',#162,#163,#194,.T.);
#115=EDGE_CURVE('',#164,#162,#195,.T.);
#116=EDGE_CURVE('',#164,#165,#196,.T.);
#117=EDGE_CURVE('',#165,#163,#197,.T.);
#118=EDGE_CURVE('',#162,#166,#198,.T.);
#119=EDGE_CURVE('',#167,#166,#199,.T.);
#120=EDGE_CURVE('',#164,#167,#200,.T.);
#121=EDGE_CURVE('',#166,#168,#201,.T.);
#122=EDGE_CURVE('',#168,#169,#202,.T.);
#123=EDGE_CURVE('',#167,#169,#203,.T.);
#124=EDGE_CURVE('',#170,#171,#204,.T.);
#125=EDGE_CURVE('',#171,#172,#205,.T.);
#126=EDGE_CURVE('',#173,#172,#206,.T.);
#127=EDGE_CURVE('',#170,#173,#207,.T.);
#128=EDGE_CURVE('',#173,#174,#12,.T.);
#129=EDGE_CURVE('',#175,#174,#208,.T.);
#130=EDGE_CURVE('',#170,#175,#13,.T.);
#131=EDGE_CURVE('',#174,#176,#209,.T.);
#132=EDGE_CURVE('',#176,#177,#210,.T.);
#133=EDGE_CURVE('',#175,#177,#211,.T.);
#134=EDGE_CURVE('',#178,#179,#212,.T.);
#135=EDGE_CURVE('',#179,#180,#213,.T.);
#136=EDGE_CURVE('',#181,#180,#214,.T.);
#137=EDGE_CURVE('',#181,#178,#215,.T.);
#138=EDGE_CURVE('',#182,#183,#216,.T.);
#139=EDGE_CURVE('',#183,#184,#217,.T.);
#140=EDGE_CURVE('',#185,#184,#218,.T.);
#141=EDGE_CURVE('',#182,#185,#219,.T.);
#142=EDGE_CURVE('',#186,#185,#14,.T.);
#143=EDGE_CURVE('',#187,#186,#220,.T.);
#144=EDGE_CURVE('',#187,#182,#15,.T.);
#145=EDGE_CURVE('',#186,#188,#221,.T.);
#146=EDGE_CURVE('',#188,#189,#222,.T.);
#147=EDGE_CURVE('',#187,#189,#223,.T.);
#148=EDGE_CURVE('',#190,#191,#224,.T.);
#149=EDGE_CURVE('',#190,#192,#225,.T.);
#150=EDGE_CURVE('',#192,#193,#226,.T.);
#151=EDGE_CURVE('',#191,#193,#227,.T.);
#152=EDGE_CURVE('',#163,#193,#228,.T.);
#153=EDGE_CURVE('',#165,#191,#229,.T.);
#154=EDGE_CURVE('',#169,#171,#230,.T.);
#155=EDGE_CURVE('',#177,#181,#231,.F.);
#156=EDGE_CURVE('',#180,#183,#232,.T.);
#157=EDGE_CURVE('',#189,#190,#233,.F.);
#158=EDGE_CURVE('',#172,#168,#234,.T.);
#159=EDGE_CURVE('',#192,#188,#235,.F.);
#160=EDGE_CURVE('',#184,#179,#236,.T.);
#161=EDGE_CURVE('',#178,#176,#237,.F.);
#162=VERTEX_POINT('',#480);
#163=VERTEX_POINT('',#481);
#164=VERTEX_POINT('',#483);
#165=VERTEX_POINT('',#485);
#166=VERTEX_POINT('',#489);
#167=VERTEX_POINT('',#491);
#168=VERTEX_POINT('',#495);
#169=VERTEX_POINT('',#497);
#170=VERTEX_POINT('',#501);
#171=VERTEX_POINT('',#502);
#172=VERTEX_POINT('',#504);
#173=VERTEX_POINT('',#506);
#174=VERTEX_POINT('',#510);
#175=VERTEX_POINT('',#512);
#176=VERTEX_POINT('',#516);
#177=VERTEX_POINT('',#518);
#178=VERTEX_POINT('',#522);
#179=VERTEX_POINT('',#523);
#180=VERTEX_POINT('',#525);
#181=VERTEX_POINT('',#527);
#182=VERTEX_POINT('',#531);
#183=VERTEX_POINT('',#532);
#184=VERTEX_POINT('',#534);
#185=VERTEX_POINT('',#536);
#186=VERTEX_POINT('',#540);
#187=VERTEX_POINT('',#542);
#188=VERTEX_POINT('',#546);
#189=VERTEX_POINT('',#548);
#190=VERTEX_POINT('',#552);
#191=VERTEX_POINT('',#553);
#192=VERTEX_POINT('',#555);
#193=VERTEX_POINT('',#557);
#194=LINE('',#479,#238);
#195=LINE('',#482,#239);
#196=LINE('',#484,#240);
#197=LINE('',#486,#241);
#198=LINE('',#488,#242);
#199=LINE('',#490,#243);
#200=LINE('',#492,#244);
#201=LINE('',#494,#245);
#202=LINE('',#496,#246);
#203=LINE('',#498,#247);
#204=LINE('',#500,#248);
#205=LINE('',#503,#249);
#206=LINE('',#505,#250);
#207=LINE('',#507,#251);
#208=LINE('',#511,#252);
#209=LINE('',#515,#253);
#210=LINE('',#517,#254);
#211=LINE('',#519,#255);
#212=LINE('',#521,#256);
#213=LINE('',#524,#257);
#214=LINE('',#526,#258);
#215=LINE('',#528,#259);
#216=LINE('',#530,#260);
#217=LINE('',#533,#261);
#218=LINE('',#535,#262);
#219=LINE('',#537,#263);
#220=LINE('',#541,#264);
#221=LINE('',#545,#265);
#222=LINE('',#547,#266);
#223=LINE('',#549,#267);
#224=LINE('',#551,#268);
#225=LINE('',#554,#269);
#226=LINE('',#556,#270);
#227=LINE('',#558,#271);
#228=LINE('',#560,#272);
#229=LINE('',#561,#273);
#230=LINE('',#563,#274);
#231=LINE('',#564,#275);
#232=LINE('',#565,#276);
#233=LINE('',#566,#277);
#234=LINE('',#568,#278);
#235=LINE('',#569,#279);
#236=LINE('',#570,#280);
#237=LINE('',#571,#281);
#238=VECTOR('',#391,1.);
#239=VECTOR('',#392,1.);
#240=VECTOR('',#393,1.);
#241=VECTOR('',#394,1.);
#242=VECTOR('',#397,1.);
#243=VECTOR('',#398,1.);
#244=VECTOR('',#399,1.);
#245=VECTOR('',#402,1.);
#246=VECTOR('',#403,1.);
#247=VECTOR('',#404,1.);
#248=VECTOR('',#407,1.);
#249=VECTOR('',#408,1.);
#250=VECTOR('',#409,1.);
#251=VECTOR('',#410,1.);
#252=VECTOR('',#415,1.);
#253=VECTOR('',#420,1.);
#254=VECTOR('',#421,1.);
#255=VECTOR('',#422,1.);
#256=VECTOR('',#425,1.);
#257=VECTOR('',#426,1.);
#258=VECTOR('',#427,1.);
#259=VECTOR('',#428,1.);
#260=VECTOR('',#431,1.);
#261=VECTOR('',#432,1.);
#262=VECTOR('',#433,1.);
#263=VECTOR('',#434,1.);
#264=VECTOR('',#439,1.);
#265=VECTOR('',#444,1.);
#266=VECTOR('',#445,1.);
#267=VECTOR('',#446,1.);
#268=VECTOR('',#449,1.);
#269=VECTOR('',#450,1.);
#270=VECTOR('',#451,1.);
#271=VECTOR('',#452,1.);
#272=VECTOR('',#455,1.);
#273=VECTOR('',#456,1.);
#274=VECTOR('',#459,1.);
#275=VECTOR('',#460,1.);
#276=VECTOR('',#461,1.);
#277=VECTOR('',#462,1.);
#278=VECTOR('',#465,1.);
#279=VECTOR('',#466,1.);
#280=VECTOR('',#467,1.);
#281=VECTOR('',#468,1.);
#282=EDGE_LOOP('',(#18,#19,#20,#21));
#283=EDGE_LOOP('',(#22,#23,#24,#25));
#284=EDGE_LOOP('',(#26,#27,#28,#29));
#285=EDGE_LOOP('',(#30,#31,#32,#33));
#286=EDGE_LOOP('',(#34,#35,#36,#37));
#287=EDGE_LOOP('',(#38,#39,#40,#41));
#288=EDGE_LOOP('',(#42,#43,#44,#45));
#289=EDGE_LOOP('',(#46,#47,#48,#49));
#290=EDGE_LOOP('',(#50,#51,#52,#53));
#291=EDGE_LOOP('',(#54,#55,#56,#57));
#292=EDGE_LOOP('',(#58,#59,#60,#61));
#293=EDGE_LOOP('',(#62,#63,#64,#65));
#294=EDGE_LOOP('',(#66,#67,#68,#69,#70,#71,#72,#73,#74,#75,#76,#77,#78,
#79,#80,#81));
#295=EDGE_LOOP('',(#82,#83,#84,#85,#86,#87,#88,#89,#90,#91,#92,#93,#94,
#95,#96,#97));
#296=EDGE_LOOP('',(#98,#99,#100,#101));
#297=EDGE_LOOP('',(#102,#103,#104,#105));
#298=EDGE_LOOP('',(#106,#107,#108,#109));
#299=EDGE_LOOP('',(#110,#111,#112,#113));
#300=FACE_BOUND('',#282,.T.);
#301=FACE_BOUND('',#283,.T.);
#302=FACE_BOUND('',#284,.T.);
#303=FACE_BOUND('',#285,.T.);
#304=FACE_BOUND('',#286,.T.);
#305=FACE_BOUND('',#287,.T.);
#306=FACE_BOUND('',#288,.T.);
#307=FACE_BOUND('',#289,.T.);
#308=FACE_BOUND('',#290,.T.);
#309=FACE_BOUND('',#291,.T.);
#310=FACE_BOUND('',#292,.T.);
#311=FACE_BOUND('',#293,.T.);
#312=FACE_BOUND('',#294,.T.);
#313=FACE_BOUND('',#295,.T.);
#314=FACE_BOUND('',#296,.T.);
#315=FACE_BOUND('',#297,.T.);
#316=FACE_BOUND('',#298,.T.);
#317=FACE_BOUND('',#299,.T.);
#318=PLANE('',#365);
#319=PLANE('',#366);
#320=PLANE('',#367);
#321=PLANE('',#368);
#322=PLANE('',#372);
#323=PLANE('',#373);
#324=PLANE('',#374);
#325=PLANE('',#378);
#326=PLANE('',#379);
#327=PLANE('',#380);
#328=PLANE('',#381);
#329=PLANE('',#382);
#330=PLANE('',#383);
#331=PLANE('',#384);
#332=PLANE('',#385);
#333=PLANE('',#386);
#334=ADVANCED_FACE('',(#300),#318,.T.);
#335=ADVANCED_FACE('',(#301),#319,.F.);
#336=ADVANCED_FACE('',(#302),#320,.F.);
#337=ADVANCED_FACE('',(#303),#321,.T.);
#338=ADVANCED_FACE('',(#304),#16,.F.);
#339=ADVANCED_FACE('',(#305),#322,.F.);
#340=ADVANCED_FACE('',(#306),#323,.F.);
#341=ADVANCED_FACE('',(#307),#324,.T.);
#342=ADVANCED_FACE('',(#308),#17,.F.);
#343=ADVANCED_FACE('',(#309),#325,.F.);
#344=ADVANCED_FACE('',(#310),#326,.F.);
#345=ADVANCED_FACE('',(#311),#327,.T.);
#346=ADVANCED_FACE('',(#312),#328,.T.);
#347=ADVANCED_FACE('',(#313),#329,.F.);
#348=ADVANCED_FACE('',(#314),#330,.F.);
#349=ADVANCED_FACE('',(#315),#331,.F.);
#350=ADVANCED_FACE('',(#316),#332,.T.);
#351=ADVANCED_FACE('',(#317),#333,.T.);
#352=CLOSED_SHELL('',(#334,#335,#336,#337,#338,#339,#340,#341,#342,#343,
#344,#345,#346,#347,#348,#349,#350,#351));
#353=STYLED_ITEM('',(#354),#361);
#354=PRESENTATION_STYLE_ASSIGNMENT((#355));
#355=SURFACE_STYLE_USAGE(.BOTH.,#356);
#356=SURFACE_SIDE_STYLE('',(#357));
#357=SURFACE_STYLE_FILL_AREA(#358);
#358=FILL_AREA_STYLE('',(#359));
#359=FILL_AREA_STYLE_COLOUR('',#360);
#360=COLOUR_RGB('',0.917647058823529,0.917647058823529,0.917647058823529);
#361=MANIFOLD_SOLID_BREP('DSCH123-M025',#352);
#362=SHAPE_DEFINITION_REPRESENTATION(#582,#363);
#363=SHAPE_REPRESENTATION('DSCH123-M025',(#364),#577);
#364=AXIS2_PLACEMENT_3D('',#477,#387,#388);
#365=AXIS2_PLACEMENT_3D('',#478,#389,#390);
#366=AXIS2_PLACEMENT_3D('',#487,#395,#396);
#367=AXIS2_PLACEMENT_3D('',#493,#400,#401);
#368=AXIS2_PLACEMENT_3D('',#499,#405,#406);
#369=AXIS2_PLACEMENT_3D('',#508,#411,#412);
#370=AXIS2_PLACEMENT_3D('',#509,#413,#414);
#371=AXIS2_PLACEMENT_3D('',#513,#416,#417);
#372=AXIS2_PLACEMENT_3D('',#514,#418,#419);
#373=AXIS2_PLACEMENT_3D('',#520,#423,#424);
#374=AXIS2_PLACEMENT_3D('',#529,#429,#430);
#375=AXIS2_PLACEMENT_3D('',#538,#435,#436);
#376=AXIS2_PLACEMENT_3D('',#539,#437,#438);
#377=AXIS2_PLACEMENT_3D('',#543,#440,#441);
#378=AXIS2_PLACEMENT_3D('',#544,#442,#443);
#379=AXIS2_PLACEMENT_3D('',#550,#447,#448);
#380=AXIS2_PLACEMENT_3D('',#559,#453,#454);
#381=AXIS2_PLACEMENT_3D('',#562,#457,#458);
#382=AXIS2_PLACEMENT_3D('',#567,#463,#464);
#383=AXIS2_PLACEMENT_3D('',#572,#469,#470);
#384=AXIS2_PLACEMENT_3D('',#573,#471,#472);
#385=AXIS2_PLACEMENT_3D('',#574,#473,#474);
#386=AXIS2_PLACEMENT_3D('',#575,#475,#476);
#387=DIRECTION('',(0.,0.,1.));
#388=DIRECTION('',(1.,0.,0.));
#389=DIRECTION('',(1.15648231731787E-16,-1.,0.));
#390=DIRECTION('',(1.,1.15648231731787E-16,0.));
#391=DIRECTION('',(-1.,-1.15648231731787E-16,0.));
#392=DIRECTION('',(0.,0.,-1.));
#393=DIRECTION('',(-1.,-1.15648231731787E-16,0.));
#394=DIRECTION('',(0.,0.,-1.));
#395=DIRECTION('',(-1.,0.,0.));
#396=DIRECTION('',(0.,0.,1.));
#397=DIRECTION('',(0.,1.,0.));
#398=DIRECTION('',(0.,0.,-1.));
#399=DIRECTION('',(0.,1.,0.));
#400=DIRECTION('',(0.,-1.,0.));
#401=DIRECTION('',(0.,0.,-1.));
#402=DIRECTION('',(-1.,0.,0.));
#403=DIRECTION('',(0.,0.,1.));
#404=DIRECTION('',(-1.,0.,0.));
#405=DIRECTION('',(-1.,0.,0.));
#406=DIRECTION('',(0.,0.,1.));
#407=DIRECTION('',(0.,1.,0.));
#408=DIRECTION('',(0.,0.,-1.));
#409=DIRECTION('',(0.,1.,0.));
#410=DIRECTION('',(0.,0.,-1.));
#411=DIRECTION('',(0.,0.,-1.));
#412=DIRECTION('',(-1.,0.,0.));
#413=DIRECTION('',(0.,0.,-1.));
#414=DIRECTION('',(1.,0.,0.));
#415=DIRECTION('',(0.,0.,-1.));
#416=DIRECTION('',(0.,0.,-1.));
#417=DIRECTION('',(1.,0.,0.));
#418=DIRECTION('',(-1.,1.7347234759768E-16,0.));
#419=DIRECTION('',(-1.7347234759768E-16,-1.,0.));
#420=DIRECTION('',(1.7347234759768E-16,1.,0.));
#421=DIRECTION('',(0.,0.,1.));
#422=DIRECTION('',(1.7347234759768E-16,1.,0.));
#423=DIRECTION('',(0.,-1.,0.));
#424=DIRECTION('',(0.,0.,-1.));
#425=DIRECTION('',(-1.,0.,0.));
#426=DIRECTION('',(0.,0.,1.));
#427=DIRECTION('',(-1.,0.,0.));
#428=DIRECTION('',(0.,0.,-1.));
#429=DIRECTION('',(-1.,-1.7347234759768E-16,0.));
#430=DIRECTION('',(1.7347234759768E-16,-1.,0.));
#431=DIRECTION('',(-1.7347234759768E-16,1.,0.));
#432=DIRECTION('',(0.,0.,-1.));
#433=DIRECTION('',(-1.7347234759768E-16,1.,0.));
#434=DIRECTION('',(0.,0.,-1.));
#435=DIRECTION('',(0.,0.,-1.));
#436=DIRECTION('',(-1.,0.,0.));
#437=DIRECTION('',(0.,0.,1.));
#438=DIRECTION('',(1.,0.,0.));
#439=DIRECTION('',(0.,0.,-1.));
#440=DIRECTION('',(0.,0.,1.));
#441=DIRECTION('',(1.,0.,0.));
#442=DIRECTION('',(-1.,0.,0.));
#443=DIRECTION('',(0.,0.,1.));
#444=DIRECTION('',(0.,1.,0.));
#445=DIRECTION('',(0.,0.,1.));
#446=DIRECTION('',(0.,1.,0.));
#447=DIRECTION('',(0.,-1.,0.));
#448=DIRECTION('',(0.,0.,-1.));
#449=DIRECTION('',(-1.,0.,0.));
#450=DIRECTION('',(0.,0.,-1.));
#451=DIRECTION('',(-1.,0.,0.));
#452=DIRECTION('',(0.,0.,-1.));
#453=DIRECTION('',(-1.,0.,0.));
#454=DIRECTION('',(0.,0.,1.));
#455=DIRECTION('',(0.,1.,0.));
#456=DIRECTION('',(0.,1.,0.));
#457=DIRECTION('',(0.,0.,1.));
#458=DIRECTION('',(1.,0.,0.));
#459=DIRECTION('',(-0.5,-0.866025403784439,0.));
#460=DIRECTION('',(0.5,-0.866025403784439,0.));
#461=DIRECTION('',(-0.5,-0.866025403784439,0.));
#462=DIRECTION('',(0.5,-0.866025403784439,0.));
#463=DIRECTION('',(0.,0.,1.));
#464=DIRECTION('',(1.,0.,0.));
#465=DIRECTION('',(0.5,0.866025403784439,0.));
#466=DIRECTION('',(-0.5,0.866025403784439,0.));
#467=DIRECTION('',(0.5,0.866025403784439,0.));
#468=DIRECTION('',(-0.5,0.866025403784439,0.));
#469=DIRECTION('',(-0.866025403784439,-0.5,0.));
#470=DIRECTION('',(0.,0.,-1.));
#471=DIRECTION('',(-0.866025403784439,-0.5,0.));
#472=DIRECTION('',(0.,0.,-1.));
#473=DIRECTION('',(-0.866025403784439,0.5,0.));
#474=DIRECTION('',(0.,0.,1.));
#475=DIRECTION('',(-0.866025403784439,0.5,0.));
#476=DIRECTION('',(0.,0.,1.));
#477=CARTESIAN_POINT('',(0.,0.,0.));
#478=CARTESIAN_POINT('',(0.,-0.0075,0.00025));
#479=CARTESIAN_POINT('',(0.,-0.0075,0.));
#480=CARTESIAN_POINT('',(0.015,-0.0075,0.));
#481=CARTESIAN_POINT('',(-0.015,-0.0075,0.));
#482=CARTESIAN_POINT('',(0.015,-0.0075,0.00025));
#483=CARTESIAN_POINT('',(0.015,-0.0075,0.00025));
#484=CARTESIAN_POINT('',(0.,-0.0075,0.00025));
#485=CARTESIAN_POINT('',(-0.015,-0.0075,0.00025));
#486=CARTESIAN_POINT('',(-0.015,-0.0075,0.00025));
#487=CARTESIAN_POINT('',(0.015,1.7347234759768E-18,0.00025));
#488=CARTESIAN_POINT('',(0.015,1.7347234759768E-18,0.));
#489=CARTESIAN_POINT('',(0.015,0.0075,0.));
#490=CARTESIAN_POINT('',(0.015,0.0075,0.00025));
#491=CARTESIAN_POINT('',(0.015,0.0075,0.00025));
#492=CARTESIAN_POINT('',(0.015,1.7347234759768E-18,0.00025));
#493=CARTESIAN_POINT('',(0.0135,0.0075,0.00025));
#494=CARTESIAN_POINT('',(0.0135,0.0075,0.));
#495=CARTESIAN_POINT('',(0.014,0.0075,0.));
#496=CARTESIAN_POINT('',(0.014,0.0075,0.00025));
#497=CARTESIAN_POINT('',(0.014,0.0075,0.00025));
#498=CARTESIAN_POINT('',(0.0135,0.0075,0.00025));
#499=CARTESIAN_POINT('',(0.012,0.00375,0.00025));
#500=CARTESIAN_POINT('',(0.012,0.00375,0.00025));
#501=CARTESIAN_POINT('',(0.012,-1.11529859178533E-18,0.00025));
#502=CARTESIAN_POINT('',(0.012,0.00403589838486225,0.00025));
#503=CARTESIAN_POINT('',(0.012,0.00403589838486225,0.));
#504=CARTESIAN_POINT('',(0.012,0.00403589838486225,0.));
#505=CARTESIAN_POINT('',(0.012,0.00375,0.));
#506=CARTESIAN_POINT('',(0.012,-1.11529859178533E-18,0.));
#507=CARTESIAN_POINT('',(0.012,-1.11529859178533E-18,0.00025));
#508=CARTESIAN_POINT('',(0.0075,-8.39753061977177E-19,0.00025));
#509=CARTESIAN_POINT('',(0.0075,-8.39753061977177E-19,0.));
#510=CARTESIAN_POINT('',(0.003,0.,0.));
#511=CARTESIAN_POINT('',(0.003,0.,0.00025));
#512=CARTESIAN_POINT('',(0.003,0.,0.00025));
#513=CARTESIAN_POINT('',(0.0075,-8.39753061977177E-19,0.00025));
#514=CARTESIAN_POINT('',(0.003,0.00375,0.00025));
#515=CARTESIAN_POINT('',(0.003,0.00375,0.));
#516=CARTESIAN_POINT('',(0.003,0.00403589838486224,0.));
#517=CARTESIAN_POINT('',(0.003,0.00403589838486224,0.00025));
#518=CARTESIAN_POINT('',(0.003,0.00403589838486224,0.00025));
#519=CARTESIAN_POINT('',(0.003,0.00375,0.00025));
#520=CARTESIAN_POINT('',(0.,0.0075,0.00025));
#521=CARTESIAN_POINT('',(0.,0.0075,0.));
#522=CARTESIAN_POINT('',(0.001,0.0075,0.));
#523=CARTESIAN_POINT('',(-0.001,0.0075,0.));
#524=CARTESIAN_POINT('',(-0.001,0.0075,0.00025));
#525=CARTESIAN_POINT('',(-0.001,0.0075,0.00025));
#526=CARTESIAN_POINT('',(0.,0.0075,0.00025));
#527=CARTESIAN_POINT('',(0.001,0.0075,0.00025));
#528=CARTESIAN_POINT('',(0.001,0.0075,0.00025));
#529=CARTESIAN_POINT('',(-0.003,0.00375,0.00025));
#530=CARTESIAN_POINT('',(-0.003,0.00375,0.00025));
#531=CARTESIAN_POINT('',(-0.003,0.,0.00025));
#532=CARTESIAN_POINT('',(-0.003,0.00403589838486225,0.00025));
#533=CARTESIAN_POINT('',(-0.003,0.00403589838486225,0.));
#534=CARTESIAN_POINT('',(-0.003,0.00403589838486225,0.));
#535=CARTESIAN_POINT('',(-0.003,0.00375,0.));
#536=CARTESIAN_POINT('',(-0.003,0.,0.));
#537=CARTESIAN_POINT('',(-0.003,0.,0.00025));
#538=CARTESIAN_POINT('',(-0.0075,-8.39753061977177E-19,0.00025));
#539=CARTESIAN_POINT('',(-0.0075,-8.39753061977177E-19,0.));
#540=CARTESIAN_POINT('',(-0.012,-1.31164725527138E-20,0.));
#541=CARTESIAN_POINT('',(-0.012,-1.31164725527138E-20,0.00025));
#542=CARTESIAN_POINT('',(-0.012,-1.31164725527138E-20,0.00025));
#543=CARTESIAN_POINT('',(-0.0075,-8.39753061977177E-19,0.00025));
#544=CARTESIAN_POINT('',(-0.012,0.00375,0.00025));
#545=CARTESIAN_POINT('',(-0.012,0.00375,0.));
#546=CARTESIAN_POINT('',(-0.012,0.00403589838486224,0.));
#547=CARTESIAN_POINT('',(-0.012,0.00403589838486224,0.00025));
#548=CARTESIAN_POINT('',(-0.012,0.00403589838486224,0.00025));
#549=CARTESIAN_POINT('',(-0.012,0.00375,0.00025));
#550=CARTESIAN_POINT('',(-0.0135,0.0075,0.00025));
#551=CARTESIAN_POINT('',(-0.0135,0.0075,0.00025));
#552=CARTESIAN_POINT('',(-0.014,0.0075,0.00025));
#553=CARTESIAN_POINT('',(-0.015,0.0075,0.00025));
#554=CARTESIAN_POINT('',(-0.014,0.0075,0.00025));
#555=CARTESIAN_POINT('',(-0.014,0.0075,0.));
#556=CARTESIAN_POINT('',(-0.0135,0.0075,0.));
#557=CARTESIAN_POINT('',(-0.015,0.0075,0.));
#558=CARTESIAN_POINT('',(-0.015,0.0075,0.00025));
#559=CARTESIAN_POINT('',(-0.015,-2.60208521396521E-18,0.00025));
#560=CARTESIAN_POINT('',(-0.015,-2.60208521396521E-18,0.));
#561=CARTESIAN_POINT('',(-0.015,-2.60208521396521E-18,0.00025));
#562=CARTESIAN_POINT('',(0.,0.,0.00025));
#563=CARTESIAN_POINT('',(0.00725240473580835,-0.00418717782649107,0.00025));
#564=CARTESIAN_POINT('',(0.00399759526419165,0.00230801270189222,0.00025));
#565=CARTESIAN_POINT('',(-0.00399759526419165,0.00230801270189222,0.00025));
#566=CARTESIAN_POINT('',(-0.00725240473580836,-0.00418717782649107,0.00025));
#567=CARTESIAN_POINT('',(0.,0.,0.));
#568=CARTESIAN_POINT('',(0.012,0.00403589838486225,0.));
#569=CARTESIAN_POINT('',(-0.014,0.0075,0.));
#570=CARTESIAN_POINT('',(-0.003,0.00403589838486225,0.));
#571=CARTESIAN_POINT('',(0.001,0.0075,0.));
#572=CARTESIAN_POINT('',(0.001,0.0075,0.00025));
#573=CARTESIAN_POINT('',(-0.014,0.0075,0.00025));
#574=CARTESIAN_POINT('',(0.012,0.00403589838486225,0.00025));
#575=CARTESIAN_POINT('',(-0.003,0.00403589838486225,0.00025));
#576=MECHANICAL_DESIGN_GEOMETRIC_PRESENTATION_REPRESENTATION('',(#353),
#577);
#577=(
GEOMETRIC_REPRESENTATION_CONTEXT(3)
GLOBAL_UNCERTAINTY_ASSIGNED_CONTEXT((#578))
GLOBAL_UNIT_ASSIGNED_CONTEXT((#581,#580,#579))
REPRESENTATION_CONTEXT('DSCH123-M025','TOP_LEVEL_ASSEMBLY_PART')
);
#578=UNCERTAINTY_MEASURE_WITH_UNIT(LENGTH_MEASURE(5.E-6),#581,
'DISTANCE_ACCURACY_VALUE','Maximum Tolerance applied to model');
#579=(
NAMED_UNIT(*)
SI_UNIT($,.STERADIAN.)
SOLID_ANGLE_UNIT()
);
#580=(
NAMED_UNIT(*)
PLANE_ANGLE_UNIT()
SI_UNIT($,.RADIAN.)
);
#581=(
LENGTH_UNIT()
NAMED_UNIT(*)
SI_UNIT($,.METRE.)
);
#582=PRODUCT_DEFINITION_SHAPE('','',#583);
#583=PRODUCT_DEFINITION('','',#585,#584);
#584=PRODUCT_DEFINITION_CONTEXT('',#591,'design');
#585=PRODUCT_DEFINITION_FORMATION_WITH_SPECIFIED_SOURCE('','',#587,
 .NOT_KNOWN.);
#586=PRODUCT_RELATED_PRODUCT_CATEGORY('','',(#587));
#587=PRODUCT('DSCH123-M025','DSCH123-M025','DSCH123-M025',(#589));
#588=PRODUCT_CATEGORY('','');
#589=PRODUCT_CONTEXT('',#591,'mechanical');
#590=APPLICATION_PROTOCOL_DEFINITION('international standard',
'ap242_managed_model_based_3d_engineering',2011,#591);
#591=APPLICATION_CONTEXT('managed model based 3d engineering');
ENDSEC;
END-ISO-10303-21;
