ISO-10303-21;
HEADER;
/* Generated by software containing ST-Developer
 * from STEP Tools, Inc. (www.steptools.com) 
 */
/* OPTION: using custom renumber hook */

FILE_DESCRIPTION(
/* description */ ('STEP AP242',
'CAx-IF Rec.Pracs.---Representation and Presentation of Product Manufa
cturing Information (PMI)---4.0---2014-10-13',
'CAx-IF Rec.Pracs.---3D Tessellated Geometry---0.4---2014-09-14','2;1'),

/* implementation_level */ '2;1');

FILE_NAME(
/* name */ '62803498234e7c780e9e97b3',
/* time_stamp */ '2022-05-14T23:00:41+00:00',
/* author */ (''),
/* organization */ (''),
/* preprocessor_version */ 'ST-DEVELOPER v18.101',
/* originating_system */ '  ',
/* authorisation */ '  ');

FILE_SCHEMA (('AP242_MANAGED_MODEL_BASED_3D_ENGINEERING_MIM_LF { 1 0 10303 442 1 1 4 }'));
ENDSEC;

DATA;
#10=SHAPE_REPRESENTATION_RELATIONSHIP('','',#431,#11);
#11=ADVANCED_BREP_SHAPE_REPRESENTATION('',(#429),#725);
#12=CIRCLE('',#435,0.0005);
#13=CIRCLE('',#436,0.0005);
#14=CIRCLE('',#439,0.0005);
#15=CIRCLE('',#440,0.0005);
#16=CIRCLE('',#443,0.00525);
#17=CIRCLE('',#444,0.00525);
#18=CIRCLE('',#447,0.0005);
#19=CIRCLE('',#448,0.0005);
#20=CIRCLE('',#451,0.0005);
#21=CIRCLE('',#452,0.0005);
#22=CIRCLE('',#455,0.0005);
#23=CIRCLE('',#456,0.0005);
#24=CIRCLE('',#459,0.0005);
#25=CIRCLE('',#460,0.0005);
#26=CIRCLE('',#463,0.0005);
#27=CIRCLE('',#464,0.0005);
#28=CIRCLE('',#467,0.0005);
#29=CIRCLE('',#468,0.0005);
#30=CIRCLE('',#471,0.00525);
#31=CIRCLE('',#472,0.00525);
#32=CYLINDRICAL_SURFACE('',#434,0.0005);
#33=CYLINDRICAL_SURFACE('',#438,0.0005);
#34=CYLINDRICAL_SURFACE('',#442,0.00525);
#35=CYLINDRICAL_SURFACE('',#446,0.0005);
#36=CYLINDRICAL_SURFACE('',#450,0.0005);
#37=CYLINDRICAL_SURFACE('',#454,0.0005);
#38=CYLINDRICAL_SURFACE('',#458,0.0005);
#39=CYLINDRICAL_SURFACE('',#462,0.0005);
#40=CYLINDRICAL_SURFACE('',#466,0.0005);
#41=CYLINDRICAL_SURFACE('',#470,0.00525);
#42=ORIENTED_EDGE('',*,*,#162,.T.);
#43=ORIENTED_EDGE('',*,*,#163,.F.);
#44=ORIENTED_EDGE('',*,*,#164,.F.);
#45=ORIENTED_EDGE('',*,*,#165,.T.);
#46=ORIENTED_EDGE('',*,*,#166,.T.);
#47=ORIENTED_EDGE('',*,*,#167,.F.);
#48=ORIENTED_EDGE('',*,*,#168,.F.);
#49=ORIENTED_EDGE('',*,*,#163,.T.);
#50=ORIENTED_EDGE('',*,*,#169,.T.);
#51=ORIENTED_EDGE('',*,*,#170,.F.);
#52=ORIENTED_EDGE('',*,*,#171,.F.);
#53=ORIENTED_EDGE('',*,*,#167,.T.);
#54=ORIENTED_EDGE('',*,*,#172,.T.);
#55=ORIENTED_EDGE('',*,*,#173,.F.);
#56=ORIENTED_EDGE('',*,*,#174,.F.);
#57=ORIENTED_EDGE('',*,*,#170,.T.);
#58=ORIENTED_EDGE('',*,*,#175,.F.);
#59=ORIENTED_EDGE('',*,*,#176,.F.);
#60=ORIENTED_EDGE('',*,*,#177,.T.);
#61=ORIENTED_EDGE('',*,*,#173,.T.);
#62=ORIENTED_EDGE('',*,*,#178,.F.);
#63=ORIENTED_EDGE('',*,*,#179,.F.);
#64=ORIENTED_EDGE('',*,*,#180,.T.);
#65=ORIENTED_EDGE('',*,*,#176,.T.);
#66=ORIENTED_EDGE('',*,*,#181,.T.);
#67=ORIENTED_EDGE('',*,*,#182,.F.);
#68=ORIENTED_EDGE('',*,*,#183,.F.);
#69=ORIENTED_EDGE('',*,*,#179,.T.);
#70=ORIENTED_EDGE('',*,*,#184,.T.);
#71=ORIENTED_EDGE('',*,*,#185,.F.);
#72=ORIENTED_EDGE('',*,*,#186,.F.);
#73=ORIENTED_EDGE('',*,*,#182,.T.);
#74=ORIENTED_EDGE('',*,*,#187,.T.);
#75=ORIENTED_EDGE('',*,*,#188,.F.);
#76=ORIENTED_EDGE('',*,*,#189,.F.);
#77=ORIENTED_EDGE('',*,*,#185,.T.);
#78=ORIENTED_EDGE('',*,*,#190,.T.);
#79=ORIENTED_EDGE('',*,*,#191,.F.);
#80=ORIENTED_EDGE('',*,*,#192,.F.);
#81=ORIENTED_EDGE('',*,*,#188,.T.);
#82=ORIENTED_EDGE('',*,*,#193,.F.);
#83=ORIENTED_EDGE('',*,*,#194,.F.);
#84=ORIENTED_EDGE('',*,*,#195,.T.);
#85=ORIENTED_EDGE('',*,*,#191,.T.);
#86=ORIENTED_EDGE('',*,*,#196,.T.);
#87=ORIENTED_EDGE('',*,*,#197,.F.);
#88=ORIENTED_EDGE('',*,*,#198,.F.);
#89=ORIENTED_EDGE('',*,*,#194,.T.);
#90=ORIENTED_EDGE('',*,*,#199,.F.);
#91=ORIENTED_EDGE('',*,*,#200,.F.);
#92=ORIENTED_EDGE('',*,*,#201,.T.);
#93=ORIENTED_EDGE('',*,*,#197,.T.);
#94=ORIENTED_EDGE('',*,*,#202,.T.);
#95=ORIENTED_EDGE('',*,*,#203,.F.);
#96=ORIENTED_EDGE('',*,*,#204,.F.);
#97=ORIENTED_EDGE('',*,*,#200,.T.);
#98=ORIENTED_EDGE('',*,*,#205,.T.);
#99=ORIENTED_EDGE('',*,*,#206,.F.);
#100=ORIENTED_EDGE('',*,*,#207,.F.);
#101=ORIENTED_EDGE('',*,*,#203,.T.);
#102=ORIENTED_EDGE('',*,*,#208,.T.);
#103=ORIENTED_EDGE('',*,*,#209,.F.);
#104=ORIENTED_EDGE('',*,*,#210,.F.);
#105=ORIENTED_EDGE('',*,*,#206,.T.);
#106=ORIENTED_EDGE('',*,*,#211,.T.);
#107=ORIENTED_EDGE('',*,*,#212,.F.);
#108=ORIENTED_EDGE('',*,*,#213,.F.);
#109=ORIENTED_EDGE('',*,*,#209,.T.);
#110=ORIENTED_EDGE('',*,*,#214,.T.);
#111=ORIENTED_EDGE('',*,*,#215,.F.);
#112=ORIENTED_EDGE('',*,*,#216,.F.);
#113=ORIENTED_EDGE('',*,*,#212,.T.);
#114=ORIENTED_EDGE('',*,*,#217,.F.);
#115=ORIENTED_EDGE('',*,*,#218,.F.);
#116=ORIENTED_EDGE('',*,*,#219,.T.);
#117=ORIENTED_EDGE('',*,*,#215,.T.);
#118=ORIENTED_EDGE('',*,*,#220,.F.);
#119=ORIENTED_EDGE('',*,*,#165,.F.);
#120=ORIENTED_EDGE('',*,*,#221,.T.);
#121=ORIENTED_EDGE('',*,*,#218,.T.);
#122=ORIENTED_EDGE('',*,*,#164,.T.);
#123=ORIENTED_EDGE('',*,*,#168,.T.);
#124=ORIENTED_EDGE('',*,*,#171,.T.);
#125=ORIENTED_EDGE('',*,*,#174,.T.);
#126=ORIENTED_EDGE('',*,*,#177,.F.);
#127=ORIENTED_EDGE('',*,*,#180,.F.);
#128=ORIENTED_EDGE('',*,*,#183,.T.);
#129=ORIENTED_EDGE('',*,*,#186,.T.);
#130=ORIENTED_EDGE('',*,*,#189,.T.);
#131=ORIENTED_EDGE('',*,*,#192,.T.);
#132=ORIENTED_EDGE('',*,*,#195,.F.);
#133=ORIENTED_EDGE('',*,*,#198,.T.);
#134=ORIENTED_EDGE('',*,*,#201,.F.);
#135=ORIENTED_EDGE('',*,*,#204,.T.);
#136=ORIENTED_EDGE('',*,*,#207,.T.);
#137=ORIENTED_EDGE('',*,*,#210,.T.);
#138=ORIENTED_EDGE('',*,*,#213,.T.);
#139=ORIENTED_EDGE('',*,*,#216,.T.);
#140=ORIENTED_EDGE('',*,*,#219,.F.);
#141=ORIENTED_EDGE('',*,*,#221,.F.);
#142=ORIENTED_EDGE('',*,*,#162,.F.);
#143=ORIENTED_EDGE('',*,*,#220,.T.);
#144=ORIENTED_EDGE('',*,*,#217,.T.);
#145=ORIENTED_EDGE('',*,*,#214,.F.);
#146=ORIENTED_EDGE('',*,*,#211,.F.);
#147=ORIENTED_EDGE('',*,*,#208,.F.);
#148=ORIENTED_EDGE('',*,*,#205,.F.);
#149=ORIENTED_EDGE('',*,*,#202,.F.);
#150=ORIENTED_EDGE('',*,*,#199,.T.);
#151=ORIENTED_EDGE('',*,*,#196,.F.);
#152=ORIENTED_EDGE('',*,*,#193,.T.);
#153=ORIENTED_EDGE('',*,*,#190,.F.);
#154=ORIENTED_EDGE('',*,*,#187,.F.);
#155=ORIENTED_EDGE('',*,*,#184,.F.);
#156=ORIENTED_EDGE('',*,*,#181,.F.);
#157=ORIENTED_EDGE('',*,*,#178,.T.);
#158=ORIENTED_EDGE('',*,*,#175,.T.);
#159=ORIENTED_EDGE('',*,*,#172,.F.);
#160=ORIENTED_EDGE('',*,*,#169,.F.);
#161=ORIENTED_EDGE('',*,*,#166,.F.);
#162=EDGE_CURVE('',#222,#223,#262,.T.);
#163=EDGE_CURVE('',#224,#223,#263,.T.);
#164=EDGE_CURVE('',#225,#224,#264,.T.);
#165=EDGE_CURVE('',#225,#222,#265,.T.);
#166=EDGE_CURVE('',#223,#226,#12,.T.);
#167=EDGE_CURVE('',#227,#226,#266,.T.);
#168=EDGE_CURVE('',#224,#227,#13,.T.);
#169=EDGE_CURVE('',#226,#228,#267,.T.);
#170=EDGE_CURVE('',#229,#228,#268,.T.);
#171=EDGE_CURVE('',#227,#229,#269,.T.);
#172=EDGE_CURVE('',#228,#230,#14,.T.);
#173=EDGE_CURVE('',#231,#230,#270,.T.);
#174=EDGE_CURVE('',#229,#231,#15,.T.);
#175=EDGE_CURVE('',#232,#230,#271,.T.);
#176=EDGE_CURVE('',#233,#232,#272,.T.);
#177=EDGE_CURVE('',#233,#231,#273,.T.);
#178=EDGE_CURVE('',#234,#232,#16,.T.);
#179=EDGE_CURVE('',#235,#234,#274,.T.);
#180=EDGE_CURVE('',#235,#233,#17,.T.);
#181=EDGE_CURVE('',#234,#236,#275,.T.);
#182=EDGE_CURVE('',#237,#236,#276,.T.);
#183=EDGE_CURVE('',#235,#237,#277,.T.);
#184=EDGE_CURVE('',#236,#238,#18,.T.);
#185=EDGE_CURVE('',#239,#238,#278,.T.);
#186=EDGE_CURVE('',#237,#239,#19,.T.);
#187=EDGE_CURVE('',#238,#240,#279,.T.);
#188=EDGE_CURVE('',#241,#240,#280,.T.);
#189=EDGE_CURVE('',#239,#241,#281,.T.);
#190=EDGE_CURVE('',#240,#242,#20,.T.);
#191=EDGE_CURVE('',#243,#242,#282,.T.);
#192=EDGE_CURVE('',#241,#243,#21,.T.);
#193=EDGE_CURVE('',#244,#242,#283,.T.);
#194=EDGE_CURVE('',#245,#244,#284,.T.);
#195=EDGE_CURVE('',#245,#243,#285,.T.);
#196=EDGE_CURVE('',#244,#246,#22,.T.);
#197=EDGE_CURVE('',#247,#246,#286,.T.);
#198=EDGE_CURVE('',#245,#247,#23,.T.);
#199=EDGE_CURVE('',#248,#246,#287,.T.);
#200=EDGE_CURVE('',#249,#248,#288,.T.);
#201=EDGE_CURVE('',#249,#247,#289,.T.);
#202=EDGE_CURVE('',#248,#250,#24,.T.);
#203=EDGE_CURVE('',#251,#250,#290,.T.);
#204=EDGE_CURVE('',#249,#251,#25,.T.);
#205=EDGE_CURVE('',#250,#252,#291,.T.);
#206=EDGE_CURVE('',#253,#252,#292,.T.);
#207=EDGE_CURVE('',#251,#253,#293,.T.);
#208=EDGE_CURVE('',#252,#254,#26,.T.);
#209=EDGE_CURVE('',#255,#254,#294,.T.);
#210=EDGE_CURVE('',#253,#255,#27,.T.);
#211=EDGE_CURVE('',#254,#256,#295,.T.);
#212=EDGE_CURVE('',#257,#256,#296,.T.);
#213=EDGE_CURVE('',#255,#257,#297,.T.);
#214=EDGE_CURVE('',#256,#258,#28,.T.);
#215=EDGE_CURVE('',#259,#258,#298,.T.);
#216=EDGE_CURVE('',#257,#259,#29,.T.);
#217=EDGE_CURVE('',#260,#258,#299,.T.);
#218=EDGE_CURVE('',#261,#260,#300,.T.);
#219=EDGE_CURVE('',#261,#259,#301,.T.);
#220=EDGE_CURVE('',#222,#260,#30,.T.);
#221=EDGE_CURVE('',#225,#261,#31,.T.);
#222=VERTEX_POINT('',#604);
#223=VERTEX_POINT('',#605);
#224=VERTEX_POINT('',#607);
#225=VERTEX_POINT('',#609);
#226=VERTEX_POINT('',#613);
#227=VERTEX_POINT('',#615);
#228=VERTEX_POINT('',#619);
#229=VERTEX_POINT('',#621);
#230=VERTEX_POINT('',#625);
#231=VERTEX_POINT('',#627);
#232=VERTEX_POINT('',#631);
#233=VERTEX_POINT('',#633);
#234=VERTEX_POINT('',#637);
#235=VERTEX_POINT('',#639);
#236=VERTEX_POINT('',#643);
#237=VERTEX_POINT('',#645);
#238=VERTEX_POINT('',#649);
#239=VERTEX_POINT('',#651);
#240=VERTEX_POINT('',#655);
#241=VERTEX_POINT('',#657);
#242=VERTEX_POINT('',#661);
#243=VERTEX_POINT('',#663);
#244=VERTEX_POINT('',#667);
#245=VERTEX_POINT('',#669);
#246=VERTEX_POINT('',#673);
#247=VERTEX_POINT('',#675);
#248=VERTEX_POINT('',#679);
#249=VERTEX_POINT('',#681);
#250=VERTEX_POINT('',#685);
#251=VERTEX_POINT('',#687);
#252=VERTEX_POINT('',#691);
#253=VERTEX_POINT('',#693);
#254=VERTEX_POINT('',#697);
#255=VERTEX_POINT('',#699);
#256=VERTEX_POINT('',#703);
#257=VERTEX_POINT('',#705);
#258=VERTEX_POINT('',#709);
#259=VERTEX_POINT('',#711);
#260=VERTEX_POINT('',#715);
#261=VERTEX_POINT('',#717);
#262=LINE('',#603,#302);
#263=LINE('',#606,#303);
#264=LINE('',#608,#304);
#265=LINE('',#610,#305);
#266=LINE('',#614,#306);
#267=LINE('',#618,#307);
#268=LINE('',#620,#308);
#269=LINE('',#622,#309);
#270=LINE('',#626,#310);
#271=LINE('',#630,#311);
#272=LINE('',#632,#312);
#273=LINE('',#634,#313);
#274=LINE('',#638,#314);
#275=LINE('',#642,#315);
#276=LINE('',#644,#316);
#277=LINE('',#646,#317);
#278=LINE('',#650,#318);
#279=LINE('',#654,#319);
#280=LINE('',#656,#320);
#281=LINE('',#658,#321);
#282=LINE('',#662,#322);
#283=LINE('',#666,#323);
#284=LINE('',#668,#324);
#285=LINE('',#670,#325);
#286=LINE('',#674,#326);
#287=LINE('',#678,#327);
#288=LINE('',#680,#328);
#289=LINE('',#682,#329);
#290=LINE('',#686,#330);
#291=LINE('',#690,#331);
#292=LINE('',#692,#332);
#293=LINE('',#694,#333);
#294=LINE('',#698,#334);
#295=LINE('',#702,#335);
#296=LINE('',#704,#336);
#297=LINE('',#706,#337);
#298=LINE('',#710,#338);
#299=LINE('',#714,#339);
#300=LINE('',#716,#340);
#301=LINE('',#718,#341);
#302=VECTOR('',#479,1.);
#303=VECTOR('',#480,1.);
#304=VECTOR('',#481,1.);
#305=VECTOR('',#482,1.);
#306=VECTOR('',#487,1.);
#307=VECTOR('',#492,1.);
#308=VECTOR('',#493,1.);
#309=VECTOR('',#494,1.);
#310=VECTOR('',#499,1.);
#311=VECTOR('',#504,1.);
#312=VECTOR('',#505,1.);
#313=VECTOR('',#506,1.);
#314=VECTOR('',#511,1.);
#315=VECTOR('',#516,1.);
#316=VECTOR('',#517,1.);
#317=VECTOR('',#518,1.);
#318=VECTOR('',#523,1.);
#319=VECTOR('',#528,1.);
#320=VECTOR('',#529,1.);
#321=VECTOR('',#530,1.);
#322=VECTOR('',#535,1.);
#323=VECTOR('',#540,1.);
#324=VECTOR('',#541,1.);
#325=VECTOR('',#542,1.);
#326=VECTOR('',#547,1.);
#327=VECTOR('',#552,1.);
#328=VECTOR('',#553,1.);
#329=VECTOR('',#554,1.);
#330=VECTOR('',#559,1.);
#331=VECTOR('',#564,1.);
#332=VECTOR('',#565,1.);
#333=VECTOR('',#566,1.);
#334=VECTOR('',#571,1.);
#335=VECTOR('',#576,1.);
#336=VECTOR('',#577,1.);
#337=VECTOR('',#578,1.);
#338=VECTOR('',#583,1.);
#339=VECTOR('',#588,1.);
#340=VECTOR('',#589,1.);
#341=VECTOR('',#590,1.);
#342=EDGE_LOOP('',(#42,#43,#44,#45));
#343=EDGE_LOOP('',(#46,#47,#48,#49));
#344=EDGE_LOOP('',(#50,#51,#52,#53));
#345=EDGE_LOOP('',(#54,#55,#56,#57));
#346=EDGE_LOOP('',(#58,#59,#60,#61));
#347=EDGE_LOOP('',(#62,#63,#64,#65));
#348=EDGE_LOOP('',(#66,#67,#68,#69));
#349=EDGE_LOOP('',(#70,#71,#72,#73));
#350=EDGE_LOOP('',(#74,#75,#76,#77));
#351=EDGE_LOOP('',(#78,#79,#80,#81));
#352=EDGE_LOOP('',(#82,#83,#84,#85));
#353=EDGE_LOOP('',(#86,#87,#88,#89));
#354=EDGE_LOOP('',(#90,#91,#92,#93));
#355=EDGE_LOOP('',(#94,#95,#96,#97));
#356=EDGE_LOOP('',(#98,#99,#100,#101));
#357=EDGE_LOOP('',(#102,#103,#104,#105));
#358=EDGE_LOOP('',(#106,#107,#108,#109));
#359=EDGE_LOOP('',(#110,#111,#112,#113));
#360=EDGE_LOOP('',(#114,#115,#116,#117));
#361=EDGE_LOOP('',(#118,#119,#120,#121));
#362=EDGE_LOOP('',(#122,#123,#124,#125,#126,#127,#128,#129,#130,#131,#132,
#133,#134,#135,#136,#137,#138,#139,#140,#141));
#363=EDGE_LOOP('',(#142,#143,#144,#145,#146,#147,#148,#149,#150,#151,#152,
#153,#154,#155,#156,#157,#158,#159,#160,#161));
#364=FACE_BOUND('',#342,.T.);
#365=FACE_BOUND('',#343,.T.);
#366=FACE_BOUND('',#344,.T.);
#367=FACE_BOUND('',#345,.T.);
#368=FACE_BOUND('',#346,.T.);
#369=FACE_BOUND('',#347,.T.);
#370=FACE_BOUND('',#348,.T.);
#371=FACE_BOUND('',#349,.T.);
#372=FACE_BOUND('',#350,.T.);
#373=FACE_BOUND('',#351,.T.);
#374=FACE_BOUND('',#352,.T.);
#375=FACE_BOUND('',#353,.T.);
#376=FACE_BOUND('',#354,.T.);
#377=FACE_BOUND('',#355,.T.);
#378=FACE_BOUND('',#356,.T.);
#379=FACE_BOUND('',#357,.T.);
#380=FACE_BOUND('',#358,.T.);
#381=FACE_BOUND('',#359,.T.);
#382=FACE_BOUND('',#360,.T.);
#383=FACE_BOUND('',#361,.T.);
#384=FACE_BOUND('',#362,.T.);
#385=FACE_BOUND('',#363,.T.);
#386=PLANE('',#433);
#387=PLANE('',#437);
#388=PLANE('',#441);
#389=PLANE('',#445);
#390=PLANE('',#449);
#391=PLANE('',#453);
#392=PLANE('',#457);
#393=PLANE('',#461);
#394=PLANE('',#465);
#395=PLANE('',#469);
#396=PLANE('',#473);
#397=PLANE('',#474);
#398=ADVANCED_FACE('',(#364),#386,.F.);
#399=ADVANCED_FACE('',(#365),#32,.T.);
#400=ADVANCED_FACE('',(#366),#387,.F.);
#401=ADVANCED_FACE('',(#367),#33,.T.);
#402=ADVANCED_FACE('',(#368),#388,.T.);
#403=ADVANCED_FACE('',(#369),#34,.F.);
#404=ADVANCED_FACE('',(#370),#389,.F.);
#405=ADVANCED_FACE('',(#371),#35,.T.);
#406=ADVANCED_FACE('',(#372),#390,.F.);
#407=ADVANCED_FACE('',(#373),#36,.T.);
#408=ADVANCED_FACE('',(#374),#391,.T.);
#409=ADVANCED_FACE('',(#375),#37,.T.);
#410=ADVANCED_FACE('',(#376),#392,.T.);
#411=ADVANCED_FACE('',(#377),#38,.T.);
#412=ADVANCED_FACE('',(#378),#393,.F.);
#413=ADVANCED_FACE('',(#379),#39,.T.);
#414=ADVANCED_FACE('',(#380),#394,.F.);
#415=ADVANCED_FACE('',(#381),#40,.T.);
#416=ADVANCED_FACE('',(#382),#395,.T.);
#417=ADVANCED_FACE('',(#383),#41,.F.);
#418=ADVANCED_FACE('',(#384),#396,.T.);
#419=ADVANCED_FACE('',(#385),#397,.F.);
#420=CLOSED_SHELL('',(#398,#399,#400,#401,#402,#403,#404,#405,#406,#407,
#408,#409,#410,#411,#412,#413,#414,#415,#416,#417,#418,#419));
#421=STYLED_ITEM('',(#422),#429);
#422=PRESENTATION_STYLE_ASSIGNMENT((#423));
#423=SURFACE_STYLE_USAGE(.BOTH.,#424);
#424=SURFACE_SIDE_STYLE('',(#425));
#425=SURFACE_STYLE_FILL_AREA(#426);
#426=FILL_AREA_STYLE('',(#427));
#427=FILL_AREA_STYLE_COLOUR('',#428);
#428=COLOUR_RGB('',0.917647058823529,0.917647058823529,0.917647058823529);
#429=MANIFOLD_SOLID_BREP('DSCH127-M100',#420);
#430=SHAPE_DEFINITION_REPRESENTATION(#730,#431);
#431=SHAPE_REPRESENTATION('DSCH127-M100',(#432),#725);
#432=AXIS2_PLACEMENT_3D('',#601,#475,#476);
#433=AXIS2_PLACEMENT_3D('',#602,#477,#478);
#434=AXIS2_PLACEMENT_3D('',#611,#483,#484);
#435=AXIS2_PLACEMENT_3D('',#612,#485,#486);
#436=AXIS2_PLACEMENT_3D('',#616,#488,#489);
#437=AXIS2_PLACEMENT_3D('',#617,#490,#491);
#438=AXIS2_PLACEMENT_3D('',#623,#495,#496);
#439=AXIS2_PLACEMENT_3D('',#624,#497,#498);
#440=AXIS2_PLACEMENT_3D('',#628,#500,#501);
#441=AXIS2_PLACEMENT_3D('',#629,#502,#503);
#442=AXIS2_PLACEMENT_3D('',#635,#507,#508);
#443=AXIS2_PLACEMENT_3D('',#636,#509,#510);
#444=AXIS2_PLACEMENT_3D('',#640,#512,#513);
#445=AXIS2_PLACEMENT_3D('',#641,#514,#515);
#446=AXIS2_PLACEMENT_3D('',#647,#519,#520);
#447=AXIS2_PLACEMENT_3D('',#648,#521,#522);
#448=AXIS2_PLACEMENT_3D('',#652,#524,#525);
#449=AXIS2_PLACEMENT_3D('',#653,#526,#527);
#450=AXIS2_PLACEMENT_3D('',#659,#531,#532);
#451=AXIS2_PLACEMENT_3D('',#660,#533,#534);
#452=AXIS2_PLACEMENT_3D('',#664,#536,#537);
#453=AXIS2_PLACEMENT_3D('',#665,#538,#539);
#454=AXIS2_PLACEMENT_3D('',#671,#543,#544);
#455=AXIS2_PLACEMENT_3D('',#672,#545,#546);
#456=AXIS2_PLACEMENT_3D('',#676,#548,#549);
#457=AXIS2_PLACEMENT_3D('',#677,#550,#551);
#458=AXIS2_PLACEMENT_3D('',#683,#555,#556);
#459=AXIS2_PLACEMENT_3D('',#684,#557,#558);
#460=AXIS2_PLACEMENT_3D('',#688,#560,#561);
#461=AXIS2_PLACEMENT_3D('',#689,#562,#563);
#462=AXIS2_PLACEMENT_3D('',#695,#567,#568);
#463=AXIS2_PLACEMENT_3D('',#696,#569,#570);
#464=AXIS2_PLACEMENT_3D('',#700,#572,#573);
#465=AXIS2_PLACEMENT_3D('',#701,#574,#575);
#466=AXIS2_PLACEMENT_3D('',#707,#579,#580);
#467=AXIS2_PLACEMENT_3D('',#708,#581,#582);
#468=AXIS2_PLACEMENT_3D('',#712,#584,#585);
#469=AXIS2_PLACEMENT_3D('',#713,#586,#587);
#470=AXIS2_PLACEMENT_3D('',#719,#591,#592);
#471=AXIS2_PLACEMENT_3D('',#720,#593,#594);
#472=AXIS2_PLACEMENT_3D('',#721,#595,#596);
#473=AXIS2_PLACEMENT_3D('',#722,#597,#598);
#474=AXIS2_PLACEMENT_3D('',#723,#599,#600);
#475=DIRECTION('',(0.,0.,1.));
#476=DIRECTION('',(1.,0.,0.));
#477=DIRECTION('',(-1.,0.,0.));
#478=DIRECTION('',(0.,0.,1.));
#479=DIRECTION('',(0.,1.,0.));
#480=DIRECTION('',(0.,0.,-1.));
#481=DIRECTION('',(0.,1.,0.));
#482=DIRECTION('',(0.,0.,-1.));
#483=DIRECTION('',(0.,0.,-1.));
#484=DIRECTION('',(-1.,0.,0.));
#485=DIRECTION('',(0.,0.,1.));
#486=DIRECTION('',(1.,0.,0.));
#487=DIRECTION('',(0.,0.,-1.));
#488=DIRECTION('',(0.,0.,1.));
#489=DIRECTION('',(1.,0.,0.));
#490=DIRECTION('',(0.,-1.,0.));
#491=DIRECTION('',(0.,0.,-1.));
#492=DIRECTION('',(-1.,0.,0.));
#493=DIRECTION('',(0.,0.,-1.));
#494=DIRECTION('',(-1.,0.,0.));
#495=DIRECTION('',(0.,0.,-1.));
#496=DIRECTION('',(-1.,0.,0.));
#497=DIRECTION('',(0.,0.,1.));
#498=DIRECTION('',(1.,0.,0.));
#499=DIRECTION('',(0.,0.,-1.));
#500=DIRECTION('',(0.,0.,1.));
#501=DIRECTION('',(1.,0.,0.));
#502=DIRECTION('',(-1.,0.,0.));
#503=DIRECTION('',(0.,0.,1.));
#504=DIRECTION('',(0.,1.,0.));
#505=DIRECTION('',(0.,0.,-1.));
#506=DIRECTION('',(0.,1.,0.));
#507=DIRECTION('',(0.,0.,-1.));
#508=DIRECTION('',(-1.,0.,0.));
#509=DIRECTION('',(0.,0.,1.));
#510=DIRECTION('',(1.,0.,0.));
#511=DIRECTION('',(0.,0.,-1.));
#512=DIRECTION('',(0.,0.,1.));
#513=DIRECTION('',(1.,0.,0.));
#514=DIRECTION('',(-1.,0.,0.));
#515=DIRECTION('',(0.,0.,1.));
#516=DIRECTION('',(0.,1.,0.));
#517=DIRECTION('',(0.,0.,-1.));
#518=DIRECTION('',(0.,1.,0.));
#519=DIRECTION('',(0.,0.,-1.));
#520=DIRECTION('',(-1.,0.,0.));
#521=DIRECTION('',(0.,0.,1.));
#522=DIRECTION('',(1.,0.,0.));
#523=DIRECTION('',(0.,0.,-1.));
#524=DIRECTION('',(0.,0.,1.));
#525=DIRECTION('',(1.,0.,0.));
#526=DIRECTION('',(0.,-1.,0.));
#527=DIRECTION('',(0.,0.,-1.));
#528=DIRECTION('',(-1.,0.,0.));
#529=DIRECTION('',(0.,0.,-1.));
#530=DIRECTION('',(-1.,0.,0.));
#531=DIRECTION('',(0.,0.,-1.));
#532=DIRECTION('',(-1.,0.,0.));
#533=DIRECTION('',(0.,0.,1.));
#534=DIRECTION('',(1.,0.,0.));
#535=DIRECTION('',(0.,0.,-1.));
#536=DIRECTION('',(0.,0.,1.));
#537=DIRECTION('',(1.,0.,0.));
#538=DIRECTION('',(-1.,0.,0.));
#539=DIRECTION('',(0.,0.,1.));
#540=DIRECTION('',(0.,1.,0.));
#541=DIRECTION('',(0.,0.,-1.));
#542=DIRECTION('',(0.,1.,0.));
#543=DIRECTION('',(0.,0.,-1.));
#544=DIRECTION('',(-1.,0.,0.));
#545=DIRECTION('',(0.,0.,1.));
#546=DIRECTION('',(1.,0.,0.));
#547=DIRECTION('',(0.,0.,-1.));
#548=DIRECTION('',(0.,0.,1.));
#549=DIRECTION('',(1.,0.,0.));
#550=DIRECTION('',(9.37688365392869E-17,-1.,0.));
#551=DIRECTION('',(1.,9.37688365392869E-17,0.));
#552=DIRECTION('',(-1.,-9.37688365392869E-17,0.));
#553=DIRECTION('',(0.,0.,-1.));
#554=DIRECTION('',(-1.,-9.37688365392869E-17,0.));
#555=DIRECTION('',(0.,0.,-1.));
#556=DIRECTION('',(-1.,0.,0.));
#557=DIRECTION('',(0.,0.,1.));
#558=DIRECTION('',(1.,0.,0.));
#559=DIRECTION('',(0.,0.,-1.));
#560=DIRECTION('',(0.,0.,1.));
#561=DIRECTION('',(1.,0.,0.));
#562=DIRECTION('',(-1.,0.,0.));
#563=DIRECTION('',(0.,0.,1.));
#564=DIRECTION('',(0.,1.,0.));
#565=DIRECTION('',(0.,0.,-1.));
#566=DIRECTION('',(0.,1.,0.));
#567=DIRECTION('',(0.,0.,-1.));
#568=DIRECTION('',(-1.,0.,0.));
#569=DIRECTION('',(0.,0.,1.));
#570=DIRECTION('',(1.,0.,0.));
#571=DIRECTION('',(0.,0.,-1.));
#572=DIRECTION('',(0.,0.,1.));
#573=DIRECTION('',(1.,0.,0.));
#574=DIRECTION('',(0.,-1.,0.));
#575=DIRECTION('',(0.,0.,-1.));
#576=DIRECTION('',(-1.,0.,0.));
#577=DIRECTION('',(0.,0.,-1.));
#578=DIRECTION('',(-1.,0.,0.));
#579=DIRECTION('',(0.,0.,-1.));
#580=DIRECTION('',(-1.,0.,0.));
#581=DIRECTION('',(0.,0.,1.));
#582=DIRECTION('',(1.,0.,0.));
#583=DIRECTION('',(0.,0.,-1.));
#584=DIRECTION('',(0.,0.,1.));
#585=DIRECTION('',(1.,0.,0.));
#586=DIRECTION('',(-1.,0.,0.));
#587=DIRECTION('',(0.,0.,1.));
#588=DIRECTION('',(0.,1.,0.));
#589=DIRECTION('',(0.,0.,-1.));
#590=DIRECTION('',(0.,1.,0.));
#591=DIRECTION('',(0.,0.,-1.));
#592=DIRECTION('',(-1.,0.,0.));
#593=DIRECTION('',(0.,0.,1.));
#594=DIRECTION('',(1.,0.,0.));
#595=DIRECTION('',(0.,0.,1.));
#596=DIRECTION('',(1.,0.,0.));
#597=DIRECTION('',(0.,0.,1.));
#598=DIRECTION('',(1.,0.,0.));
#599=DIRECTION('',(0.,0.,1.));
#600=DIRECTION('',(1.,0.,0.));
#601=CARTESIAN_POINT('',(0.,0.,0.));
#602=CARTESIAN_POINT('',(0.00475,0.00375,0.001));
#603=CARTESIAN_POINT('',(0.00475,0.00375,0.));
#604=CARTESIAN_POINT('',(0.00475,7.02479269709754E-19,0.));
#605=CARTESIAN_POINT('',(0.00475,0.0075,0.));
#606=CARTESIAN_POINT('',(0.00475,0.0075,0.001));
#607=CARTESIAN_POINT('',(0.00475,0.0075,0.001));
#608=CARTESIAN_POINT('',(0.00475,0.00375,0.001));
#609=CARTESIAN_POINT('',(0.00475,7.02479269709754E-19,0.001));
#610=CARTESIAN_POINT('',(0.00475,7.02479269709754E-19,0.001));
#611=CARTESIAN_POINT('',(0.00425,0.0075,0.001));
#612=CARTESIAN_POINT('',(0.00425,0.0075,0.));
#613=CARTESIAN_POINT('',(0.00425,0.008,0.));
#614=CARTESIAN_POINT('',(0.00425,0.008,0.001));
#615=CARTESIAN_POINT('',(0.00425,0.008,0.001));
#616=CARTESIAN_POINT('',(0.00425,0.0075,0.001));
#617=CARTESIAN_POINT('',(1.7347234759768E-18,0.008,0.001));
#618=CARTESIAN_POINT('',(1.7347234759768E-18,0.008,0.));
#619=CARTESIAN_POINT('',(-0.00425,0.008,0.));
#620=CARTESIAN_POINT('',(-0.00425,0.008,0.001));
#621=CARTESIAN_POINT('',(-0.00425,0.008,0.001));
#622=CARTESIAN_POINT('',(1.7347234759768E-18,0.008,0.001));
#623=CARTESIAN_POINT('',(-0.00425,0.0075,0.001));
#624=CARTESIAN_POINT('',(-0.00425,0.0075,0.));
#625=CARTESIAN_POINT('',(-0.00475,0.0075,0.));
#626=CARTESIAN_POINT('',(-0.00475,0.0075,0.001));
#627=CARTESIAN_POINT('',(-0.00475,0.0075,0.001));
#628=CARTESIAN_POINT('',(-0.00425,0.0075,0.001));
#629=CARTESIAN_POINT('',(-0.00475,0.00375,0.001));
#630=CARTESIAN_POINT('',(-0.00475,0.00375,0.));
#631=CARTESIAN_POINT('',(-0.00475,-1.28587913910472E-18,0.));
#632=CARTESIAN_POINT('',(-0.00475,-1.28587913910472E-18,0.001));
#633=CARTESIAN_POINT('',(-0.00475,-1.28587913910472E-18,0.001));
#634=CARTESIAN_POINT('',(-0.00475,0.00375,0.001));
#635=CARTESIAN_POINT('',(-0.01,-3.2146978477618E-19,0.001));
#636=CARTESIAN_POINT('',(-0.01,-3.2146978477618E-19,0.));
#637=CARTESIAN_POINT('',(-0.01525,0.,0.));
#638=CARTESIAN_POINT('',(-0.01525,0.,0.001));
#639=CARTESIAN_POINT('',(-0.01525,0.,0.001));
#640=CARTESIAN_POINT('',(-0.01,-3.2146978477618E-19,0.001));
#641=CARTESIAN_POINT('',(-0.01525,0.00375,0.001));
#642=CARTESIAN_POINT('',(-0.01525,0.00375,0.));
#643=CARTESIAN_POINT('',(-0.01525,0.0075,0.));
#644=CARTESIAN_POINT('',(-0.01525,0.0075,0.001));
#645=CARTESIAN_POINT('',(-0.01525,0.0075,0.001));
#646=CARTESIAN_POINT('',(-0.01525,0.00375,0.001));
#647=CARTESIAN_POINT('',(-0.01575,0.0075,0.001));
#648=CARTESIAN_POINT('',(-0.01575,0.0075,0.));
#649=CARTESIAN_POINT('',(-0.01575,0.008,0.));
#650=CARTESIAN_POINT('',(-0.01575,0.008,0.001));
#651=CARTESIAN_POINT('',(-0.01575,0.008,0.001));
#652=CARTESIAN_POINT('',(-0.01575,0.0075,0.001));
#653=CARTESIAN_POINT('',(-0.017125,0.008,0.001));
#654=CARTESIAN_POINT('',(-0.017125,0.008,0.));
#655=CARTESIAN_POINT('',(-0.0185,0.008,0.));
#656=CARTESIAN_POINT('',(-0.0185,0.008,0.001));
#657=CARTESIAN_POINT('',(-0.0185,0.008,0.001));
#658=CARTESIAN_POINT('',(-0.017125,0.008,0.001));
#659=CARTESIAN_POINT('',(-0.0185,0.0075,0.001));
#660=CARTESIAN_POINT('',(-0.0185,0.0075,0.));
#661=CARTESIAN_POINT('',(-0.019,0.0075,0.));
#662=CARTESIAN_POINT('',(-0.019,0.0075,0.001));
#663=CARTESIAN_POINT('',(-0.019,0.0075,0.001));
#664=CARTESIAN_POINT('',(-0.0185,0.0075,0.001));
#665=CARTESIAN_POINT('',(-0.019,-3.46944695195361E-18,0.001));
#666=CARTESIAN_POINT('',(-0.019,-3.46944695195361E-18,0.));
#667=CARTESIAN_POINT('',(-0.019,-0.0075,0.));
#668=CARTESIAN_POINT('',(-0.019,-0.0075,0.001));
#669=CARTESIAN_POINT('',(-0.019,-0.0075,0.001));
#670=CARTESIAN_POINT('',(-0.019,-3.46944695195361E-18,0.001));
#671=CARTESIAN_POINT('',(-0.0185,-0.0075,0.001));
#672=CARTESIAN_POINT('',(-0.0185,-0.0075,0.));
#673=CARTESIAN_POINT('',(-0.0185,-0.008,0.));
#674=CARTESIAN_POINT('',(-0.0185,-0.008,0.001));
#675=CARTESIAN_POINT('',(-0.0185,-0.008,0.001));
#676=CARTESIAN_POINT('',(-0.0185,-0.0075,0.001));
#677=CARTESIAN_POINT('',(0.,-0.008,0.001));
#678=CARTESIAN_POINT('',(0.,-0.008,0.));
#679=CARTESIAN_POINT('',(0.0185,-0.008,0.));
#680=CARTESIAN_POINT('',(0.0185,-0.008,0.001));
#681=CARTESIAN_POINT('',(0.0185,-0.008,0.001));
#682=CARTESIAN_POINT('',(0.,-0.008,0.001));
#683=CARTESIAN_POINT('',(0.0185,-0.0075,0.001));
#684=CARTESIAN_POINT('',(0.0185,-0.0075,0.));
#685=CARTESIAN_POINT('',(0.019,-0.0075,0.));
#686=CARTESIAN_POINT('',(0.019,-0.0075,0.001));
#687=CARTESIAN_POINT('',(0.019,-0.0075,0.001));
#688=CARTESIAN_POINT('',(0.0185,-0.0075,0.001));
#689=CARTESIAN_POINT('',(0.019,0.,0.001));
#690=CARTESIAN_POINT('',(0.019,0.,0.));
#691=CARTESIAN_POINT('',(0.019,0.0075,0.));
#692=CARTESIAN_POINT('',(0.019,0.0075,0.001));
#693=CARTESIAN_POINT('',(0.019,0.0075,0.001));
#694=CARTESIAN_POINT('',(0.019,0.,0.001));
#695=CARTESIAN_POINT('',(0.0185,0.0075,0.001));
#696=CARTESIAN_POINT('',(0.0185,0.0075,0.));
#697=CARTESIAN_POINT('',(0.0185,0.008,0.));
#698=CARTESIAN_POINT('',(0.0185,0.008,0.001));
#699=CARTESIAN_POINT('',(0.0185,0.008,0.001));
#700=CARTESIAN_POINT('',(0.0185,0.0075,0.001));
#701=CARTESIAN_POINT('',(0.017125,0.008,0.001));
#702=CARTESIAN_POINT('',(0.017125,0.008,0.));
#703=CARTESIAN_POINT('',(0.01575,0.008,0.));
#704=CARTESIAN_POINT('',(0.01575,0.008,0.001));
#705=CARTESIAN_POINT('',(0.01575,0.008,0.001));
#706=CARTESIAN_POINT('',(0.017125,0.008,0.001));
#707=CARTESIAN_POINT('',(0.01575,0.0075,0.001));
#708=CARTESIAN_POINT('',(0.01575,0.0075,0.));
#709=CARTESIAN_POINT('',(0.01525,0.0075,0.));
#710=CARTESIAN_POINT('',(0.01525,0.0075,0.001));
#711=CARTESIAN_POINT('',(0.01525,0.0075,0.001));
#712=CARTESIAN_POINT('',(0.01575,0.0075,0.001));
#713=CARTESIAN_POINT('',(0.01525,0.00375,0.001));
#714=CARTESIAN_POINT('',(0.01525,0.00375,0.));
#715=CARTESIAN_POINT('',(0.01525,0.,0.));
#716=CARTESIAN_POINT('',(0.01525,0.,0.001));
#717=CARTESIAN_POINT('',(0.01525,0.,0.001));
#718=CARTESIAN_POINT('',(0.01525,0.00375,0.001));
#719=CARTESIAN_POINT('',(0.01,-2.61930084618787E-19,0.001));
#720=CARTESIAN_POINT('',(0.01,-2.61930084618787E-19,0.));
#721=CARTESIAN_POINT('',(0.01,-2.61930084618787E-19,0.001));
#722=CARTESIAN_POINT('',(0.,0.,0.001));
#723=CARTESIAN_POINT('',(0.,0.,0.));
#724=MECHANICAL_DESIGN_GEOMETRIC_PRESENTATION_REPRESENTATION('',(#421),
#725);
#725=(
GEOMETRIC_REPRESENTATION_CONTEXT(3)
GLOBAL_UNCERTAINTY_ASSIGNED_CONTEXT((#726))
GLOBAL_UNIT_ASSIGNED_CONTEXT((#729,#728,#727))
REPRESENTATION_CONTEXT('DSCH127-M100','TOP_LEVEL_ASSEMBLY_PART')
);
#726=UNCERTAINTY_MEASURE_WITH_UNIT(LENGTH_MEASURE(5.E-6),#729,
'DISTANCE_ACCURACY_VALUE','Maximum Tolerance applied to model');
#727=(
NAMED_UNIT(*)
SI_UNIT($,.STERADIAN.)
SOLID_ANGLE_UNIT()
);
#728=(
NAMED_UNIT(*)
PLANE_ANGLE_UNIT()
SI_UNIT($,.RADIAN.)
);
#729=(
LENGTH_UNIT()
NAMED_UNIT(*)
SI_UNIT($,.METRE.)
);
#730=PRODUCT_DEFINITION_SHAPE('','',#731);
#731=PRODUCT_DEFINITION('','',#733,#732);
#732=PRODUCT_DEFINITION_CONTEXT('',#739,'design');
#733=PRODUCT_DEFINITION_FORMATION_WITH_SPECIFIED_SOURCE('','',#735,
 .NOT_KNOWN.);
#734=PRODUCT_RELATED_PRODUCT_CATEGORY('','',(#735));
#735=PRODUCT('DSCH127-M100','DSCH127-M100','DSCH127-M100',(#737));
#736=PRODUCT_CATEGORY('','');
#737=PRODUCT_CONTEXT('',#739,'mechanical');
#738=APPLICATION_PROTOCOL_DEFINITION('international standard',
'ap242_managed_model_based_3d_engineering',2011,#739);
#739=APPLICATION_CONTEXT('managed model based 3d engineering');
ENDSEC;
END-ISO-10303-21;
