ISO-10303-21;
HEADER;
/* Generated by software containing ST-Developer
 * from STEP Tools, Inc. (www.steptools.com) 
 */
/* OPTION: using custom renumber hook */

FILE_DESCRIPTION(
/* description */ ('STEP AP242',
'CAx-IF Rec.Pracs.---Representation and Presentation of Product Manufa
cturing Information (PMI)---4.0---2014-10-13',
'CAx-IF Rec.Pracs.---3D Tessellated Geometry---0.4---2014-09-14','2;1'),

/* implementation_level */ '2;1');

FILE_NAME(
/* name */ '6282995714e8574ad032ffd9',
/* time_stamp */ '2022-05-16T18:35:03+00:00',
/* author */ (''),
/* organization */ (''),
/* preprocessor_version */ 'ST-DEVELOPER v18.101',
/* originating_system */ '  ',
/* authorisation */ '  ');

FILE_SCHEMA (('AP242_MANAGED_MODEL_BASED_3D_ENGINEERING_MIM_LF { 1 0 10303 442 1 1 4 }'));
ENDSEC;

DATA;
#10=SHAPE_REPRESENTATION_RELATIONSHIP('','',#175,#11);
#11=ADVANCED_BREP_SHAPE_REPRESENTATION('',(#173),#279);
#12=CYLINDRICAL_SURFACE('',#189,0.005588);
#13=CYLINDRICAL_SURFACE('',#190,0.005588);
#14=CYLINDRICAL_SURFACE('',#191,0.005588);
#15=CIRCLE('',#182,0.005588);
#16=CIRCLE('',#183,0.005588);
#17=CIRCLE('',#184,0.005588);
#18=CIRCLE('',#186,0.005588);
#19=CIRCLE('',#187,0.005588);
#20=CIRCLE('',#188,0.005588);
#21=ORIENTED_EDGE('',*,*,#57,.F.);
#22=ORIENTED_EDGE('',*,*,#58,.F.);
#23=ORIENTED_EDGE('',*,*,#59,.T.);
#24=ORIENTED_EDGE('',*,*,#60,.T.);
#25=ORIENTED_EDGE('',*,*,#61,.T.);
#26=ORIENTED_EDGE('',*,*,#62,.F.);
#27=ORIENTED_EDGE('',*,*,#63,.F.);
#28=ORIENTED_EDGE('',*,*,#58,.T.);
#29=ORIENTED_EDGE('',*,*,#64,.T.);
#30=ORIENTED_EDGE('',*,*,#65,.F.);
#31=ORIENTED_EDGE('',*,*,#66,.F.);
#32=ORIENTED_EDGE('',*,*,#62,.T.);
#33=ORIENTED_EDGE('',*,*,#67,.F.);
#34=ORIENTED_EDGE('',*,*,#60,.F.);
#35=ORIENTED_EDGE('',*,*,#68,.T.);
#36=ORIENTED_EDGE('',*,*,#65,.T.);
#37=ORIENTED_EDGE('',*,*,#69,.F.);
#38=ORIENTED_EDGE('',*,*,#70,.F.);
#39=ORIENTED_EDGE('',*,*,#71,.F.);
#40=ORIENTED_EDGE('',*,*,#59,.F.);
#41=ORIENTED_EDGE('',*,*,#63,.T.);
#42=ORIENTED_EDGE('',*,*,#66,.T.);
#43=ORIENTED_EDGE('',*,*,#68,.F.);
#44=ORIENTED_EDGE('',*,*,#72,.F.);
#45=ORIENTED_EDGE('',*,*,#73,.F.);
#46=ORIENTED_EDGE('',*,*,#74,.F.);
#47=ORIENTED_EDGE('',*,*,#57,.T.);
#48=ORIENTED_EDGE('',*,*,#67,.T.);
#49=ORIENTED_EDGE('',*,*,#64,.F.);
#50=ORIENTED_EDGE('',*,*,#61,.F.);
#51=ORIENTED_EDGE('',*,*,#71,.T.);
#52=ORIENTED_EDGE('',*,*,#74,.T.);
#53=ORIENTED_EDGE('',*,*,#70,.T.);
#54=ORIENTED_EDGE('',*,*,#73,.T.);
#55=ORIENTED_EDGE('',*,*,#69,.T.);
#56=ORIENTED_EDGE('',*,*,#72,.T.);
#57=EDGE_CURVE('',#75,#76,#89,.T.);
#58=EDGE_CURVE('',#77,#75,#90,.T.);
#59=EDGE_CURVE('',#77,#78,#91,.T.);
#60=EDGE_CURVE('',#78,#76,#92,.T.);
#61=EDGE_CURVE('',#75,#79,#93,.T.);
#62=EDGE_CURVE('',#80,#79,#94,.T.);
#63=EDGE_CURVE('',#77,#80,#95,.T.);
#64=EDGE_CURVE('',#79,#81,#96,.T.);
#65=EDGE_CURVE('',#82,#81,#97,.T.);
#66=EDGE_CURVE('',#80,#82,#98,.T.);
#67=EDGE_CURVE('',#76,#81,#99,.T.);
#68=EDGE_CURVE('',#78,#82,#100,.T.);
#69=EDGE_CURVE('',#83,#83,#15,.T.);
#70=EDGE_CURVE('',#84,#84,#16,.T.);
#71=EDGE_CURVE('',#85,#85,#17,.T.);
#72=EDGE_CURVE('',#86,#86,#18,.F.);
#73=EDGE_CURVE('',#87,#87,#19,.F.);
#74=EDGE_CURVE('',#88,#88,#20,.F.);
#75=VERTEX_POINT('',#239);
#76=VERTEX_POINT('',#240);
#77=VERTEX_POINT('',#242);
#78=VERTEX_POINT('',#244);
#79=VERTEX_POINT('',#248);
#80=VERTEX_POINT('',#250);
#81=VERTEX_POINT('',#254);
#82=VERTEX_POINT('',#256);
#83=VERTEX_POINT('',#263);
#84=VERTEX_POINT('',#265);
#85=VERTEX_POINT('',#267);
#86=VERTEX_POINT('',#270);
#87=VERTEX_POINT('',#272);
#88=VERTEX_POINT('',#274);
#89=LINE('',#238,#101);
#90=LINE('',#241,#102);
#91=LINE('',#243,#103);
#92=LINE('',#245,#104);
#93=LINE('',#247,#105);
#94=LINE('',#249,#106);
#95=LINE('',#251,#107);
#96=LINE('',#253,#108);
#97=LINE('',#255,#109);
#98=LINE('',#257,#110);
#99=LINE('',#259,#111);
#100=LINE('',#260,#112);
#101=VECTOR('',#196,1.);
#102=VECTOR('',#197,1.);
#103=VECTOR('',#198,1.);
#104=VECTOR('',#199,1.);
#105=VECTOR('',#202,1.);
#106=VECTOR('',#203,1.);
#107=VECTOR('',#204,1.);
#108=VECTOR('',#207,1.);
#109=VECTOR('',#208,1.);
#110=VECTOR('',#209,1.);
#111=VECTOR('',#212,1.);
#112=VECTOR('',#213,1.);
#113=EDGE_LOOP('',(#21,#22,#23,#24));
#114=EDGE_LOOP('',(#25,#26,#27,#28));
#115=EDGE_LOOP('',(#29,#30,#31,#32));
#116=EDGE_LOOP('',(#33,#34,#35,#36));
#117=EDGE_LOOP('',(#37));
#118=EDGE_LOOP('',(#38));
#119=EDGE_LOOP('',(#39));
#120=EDGE_LOOP('',(#40,#41,#42,#43));
#121=EDGE_LOOP('',(#44));
#122=EDGE_LOOP('',(#45));
#123=EDGE_LOOP('',(#46));
#124=EDGE_LOOP('',(#47,#48,#49,#50));
#125=EDGE_LOOP('',(#51));
#126=EDGE_LOOP('',(#52));
#127=EDGE_LOOP('',(#53));
#128=EDGE_LOOP('',(#54));
#129=EDGE_LOOP('',(#55));
#130=EDGE_LOOP('',(#56));
#131=FACE_BOUND('',#113,.T.);
#132=FACE_BOUND('',#114,.T.);
#133=FACE_BOUND('',#115,.T.);
#134=FACE_BOUND('',#116,.T.);
#135=FACE_BOUND('',#117,.T.);
#136=FACE_BOUND('',#118,.T.);
#137=FACE_BOUND('',#119,.T.);
#138=FACE_BOUND('',#120,.T.);
#139=FACE_BOUND('',#121,.T.);
#140=FACE_BOUND('',#122,.T.);
#141=FACE_BOUND('',#123,.T.);
#142=FACE_BOUND('',#124,.T.);
#143=FACE_BOUND('',#125,.T.);
#144=FACE_BOUND('',#126,.T.);
#145=FACE_BOUND('',#127,.T.);
#146=FACE_BOUND('',#128,.T.);
#147=FACE_BOUND('',#129,.T.);
#148=FACE_BOUND('',#130,.T.);
#149=PLANE('',#177);
#150=PLANE('',#178);
#151=PLANE('',#179);
#152=PLANE('',#180);
#153=PLANE('',#181);
#154=PLANE('',#185);
#155=ADVANCED_FACE('',(#131),#149,.T.);
#156=ADVANCED_FACE('',(#132),#150,.F.);
#157=ADVANCED_FACE('',(#133),#151,.F.);
#158=ADVANCED_FACE('',(#134),#152,.T.);
#159=ADVANCED_FACE('',(#135,#136,#137,#138),#153,.T.);
#160=ADVANCED_FACE('',(#139,#140,#141,#142),#154,.F.);
#161=ADVANCED_FACE('',(#143,#144),#12,.F.);
#162=ADVANCED_FACE('',(#145,#146),#13,.F.);
#163=ADVANCED_FACE('',(#147,#148),#14,.F.);
#164=CLOSED_SHELL('',(#155,#156,#157,#158,#159,#160,#161,#162,#163));
#165=STYLED_ITEM('',(#166),#173);
#166=PRESENTATION_STYLE_ASSIGNMENT((#167));
#167=SURFACE_STYLE_USAGE(.BOTH.,#168);
#168=SURFACE_SIDE_STYLE('',(#169));
#169=SURFACE_STYLE_FILL_AREA(#170);
#170=FILL_AREA_STYLE('',(#171));
#171=FILL_AREA_STYLE_COLOUR('',#172);
#172=COLOUR_RGB('',0.4,0.4,0.4);
#173=MANIFOLD_SOLID_BREP('DSCP003-M275',#164);
#174=SHAPE_DEFINITION_REPRESENTATION(#284,#175);
#175=SHAPE_REPRESENTATION('DSCP003-M275',(#176),#279);
#176=AXIS2_PLACEMENT_3D('',#236,#192,#193);
#177=AXIS2_PLACEMENT_3D('',#237,#194,#195);
#178=AXIS2_PLACEMENT_3D('',#246,#200,#201);
#179=AXIS2_PLACEMENT_3D('',#252,#205,#206);
#180=AXIS2_PLACEMENT_3D('',#258,#210,#211);
#181=AXIS2_PLACEMENT_3D('',#261,#214,#215);
#182=AXIS2_PLACEMENT_3D('',#262,#216,#217);
#183=AXIS2_PLACEMENT_3D('',#264,#218,#219);
#184=AXIS2_PLACEMENT_3D('',#266,#220,#221);
#185=AXIS2_PLACEMENT_3D('',#268,#222,#223);
#186=AXIS2_PLACEMENT_3D('',#269,#224,#225);
#187=AXIS2_PLACEMENT_3D('',#271,#226,#227);
#188=AXIS2_PLACEMENT_3D('',#273,#228,#229);
#189=AXIS2_PLACEMENT_3D('',#275,#230,#231);
#190=AXIS2_PLACEMENT_3D('',#276,#232,#233);
#191=AXIS2_PLACEMENT_3D('',#277,#234,#235);
#192=DIRECTION('',(0.,0.,1.));
#193=DIRECTION('',(1.,0.,0.));
#194=DIRECTION('',(1.36592399683213E-16,-1.,0.));
#195=DIRECTION('',(1.,1.36592399683213E-16,0.));
#196=DIRECTION('',(-1.,-1.36592399683213E-16,0.));
#197=DIRECTION('',(0.,0.,-1.));
#198=DIRECTION('',(-1.,-1.36592399683213E-16,0.));
#199=DIRECTION('',(0.,0.,-1.));
#200=DIRECTION('',(-1.,0.,0.));
#201=DIRECTION('',(0.,0.,1.));
#202=DIRECTION('',(0.,1.,0.));
#203=DIRECTION('',(0.,0.,-1.));
#204=DIRECTION('',(0.,1.,0.));
#205=DIRECTION('',(1.0927391974657E-16,-1.,0.));
#206=DIRECTION('',(1.,1.0927391974657E-16,0.));
#207=DIRECTION('',(-1.,-1.0927391974657E-16,0.));
#208=DIRECTION('',(0.,0.,-1.));
#209=DIRECTION('',(-1.,-1.0927391974657E-16,0.));
#210=DIRECTION('',(-1.,0.,0.));
#211=DIRECTION('',(0.,0.,1.));
#212=DIRECTION('',(0.,1.,0.));
#213=DIRECTION('',(0.,1.,0.));
#214=DIRECTION('',(0.,0.,1.));
#215=DIRECTION('',(1.,0.,0.));
#216=DIRECTION('',(0.,0.,1.));
#217=DIRECTION('',(1.,0.,0.));
#218=DIRECTION('',(0.,0.,1.));
#219=DIRECTION('',(1.,0.,0.));
#220=DIRECTION('',(0.,0.,1.));
#221=DIRECTION('',(1.,0.,0.));
#222=DIRECTION('',(0.,0.,1.));
#223=DIRECTION('',(1.,0.,0.));
#224=DIRECTION('',(0.,0.,1.));
#225=DIRECTION('',(1.,0.,0.));
#226=DIRECTION('',(0.,0.,1.));
#227=DIRECTION('',(1.,0.,0.));
#228=DIRECTION('',(0.,0.,1.));
#229=DIRECTION('',(1.,0.,0.));
#230=DIRECTION('',(0.,0.,1.));
#231=DIRECTION('',(1.,0.,0.));
#232=DIRECTION('',(0.,0.,1.));
#233=DIRECTION('',(1.,0.,0.));
#234=DIRECTION('',(0.,0.,1.));
#235=DIRECTION('',(1.,0.,0.));
#236=CARTESIAN_POINT('',(0.,0.,0.));
#237=CARTESIAN_POINT('',(0.,-0.0127,0.00275));
#238=CARTESIAN_POINT('',(0.,-0.0127,0.));
#239=CARTESIAN_POINT('',(0.03175,-0.0127,0.));
#240=CARTESIAN_POINT('',(-0.03175,-0.0127,0.));
#241=CARTESIAN_POINT('',(0.03175,-0.0127,0.00275));
#242=CARTESIAN_POINT('',(0.03175,-0.0127,0.00275));
#243=CARTESIAN_POINT('',(0.,-0.0127,0.00275));
#244=CARTESIAN_POINT('',(-0.03175,-0.0127,0.00275));
#245=CARTESIAN_POINT('',(-0.03175,-0.0127,0.00275));
#246=CARTESIAN_POINT('',(0.03175,3.46944695195361E-18,0.00275));
#247=CARTESIAN_POINT('',(0.03175,3.46944695195361E-18,0.));
#248=CARTESIAN_POINT('',(0.03175,0.0127,0.));
#249=CARTESIAN_POINT('',(0.03175,0.0127,0.00275));
#250=CARTESIAN_POINT('',(0.03175,0.0127,0.00275));
#251=CARTESIAN_POINT('',(0.03175,3.46944695195361E-18,0.00275));
#252=CARTESIAN_POINT('',(0.,0.0127,0.00275));
#253=CARTESIAN_POINT('',(0.,0.0127,0.));
#254=CARTESIAN_POINT('',(-0.03175,0.0127,0.));
#255=CARTESIAN_POINT('',(-0.03175,0.0127,0.00275));
#256=CARTESIAN_POINT('',(-0.03175,0.0127,0.00275));
#257=CARTESIAN_POINT('',(0.,0.0127,0.00275));
#258=CARTESIAN_POINT('',(-0.03175,-3.46944695195361E-18,0.00275));
#259=CARTESIAN_POINT('',(-0.03175,-3.46944695195361E-18,0.));
#260=CARTESIAN_POINT('',(-0.03175,-3.46944695195361E-18,0.00275));
#261=CARTESIAN_POINT('',(0.,0.,0.00275));
#262=CARTESIAN_POINT('',(-0.020574,0.,0.00275));
#263=CARTESIAN_POINT('',(-0.014986,0.,0.00275));
#264=CARTESIAN_POINT('',(0.020574,-2.33421681020475E-19,0.00275));
#265=CARTESIAN_POINT('',(0.026162,-2.33421681020475E-19,0.00275));
#266=CARTESIAN_POINT('',(0.,0.,0.00275));
#267=CARTESIAN_POINT('',(0.005588,0.,0.00275));
#268=CARTESIAN_POINT('',(0.,0.,0.));
#269=CARTESIAN_POINT('',(-0.020574,0.,0.));
#270=CARTESIAN_POINT('',(-0.014986,0.,0.));
#271=CARTESIAN_POINT('',(0.020574,-2.33421681020475E-19,0.));
#272=CARTESIAN_POINT('',(0.026162,-2.33421681020475E-19,0.));
#273=CARTESIAN_POINT('',(0.,0.,0.));
#274=CARTESIAN_POINT('',(0.005588,0.,0.));
#275=CARTESIAN_POINT('',(0.,0.,-0.0673756635186777));
#276=CARTESIAN_POINT('',(0.020574,-2.33421681020475E-19,-0.0673756635186777));
#277=CARTESIAN_POINT('',(-0.020574,0.,-0.0673756635186777));
#278=MECHANICAL_DESIGN_GEOMETRIC_PRESENTATION_REPRESENTATION('',(#165),
#279);
#279=(
GEOMETRIC_REPRESENTATION_CONTEXT(3)
GLOBAL_UNCERTAINTY_ASSIGNED_CONTEXT((#280))
GLOBAL_UNIT_ASSIGNED_CONTEXT((#283,#282,#281))
REPRESENTATION_CONTEXT('DSCP003-M275','TOP_LEVEL_ASSEMBLY_PART')
);
#280=UNCERTAINTY_MEASURE_WITH_UNIT(LENGTH_MEASURE(5.E-6),#283,
'DISTANCE_ACCURACY_VALUE','Maximum Tolerance applied to model');
#281=(
NAMED_UNIT(*)
SI_UNIT($,.STERADIAN.)
SOLID_ANGLE_UNIT()
);
#282=(
NAMED_UNIT(*)
PLANE_ANGLE_UNIT()
SI_UNIT($,.RADIAN.)
);
#283=(
LENGTH_UNIT()
NAMED_UNIT(*)
SI_UNIT($,.METRE.)
);
#284=PRODUCT_DEFINITION_SHAPE('','',#285);
#285=PRODUCT_DEFINITION('','',#287,#286);
#286=PRODUCT_DEFINITION_CONTEXT('',#293,'design');
#287=PRODUCT_DEFINITION_FORMATION_WITH_SPECIFIED_SOURCE('','',#289,
 .NOT_KNOWN.);
#288=PRODUCT_RELATED_PRODUCT_CATEGORY('','',(#289));
#289=PRODUCT('DSCP003-M275','DSCP003-M275','DSCP003-M275',(#291));
#290=PRODUCT_CATEGORY('','');
#291=PRODUCT_CONTEXT('',#293,'mechanical');
#292=APPLICATION_PROTOCOL_DEFINITION('international standard',
'ap242_managed_model_based_3d_engineering',2011,#293);
#293=APPLICATION_CONTEXT('managed model based 3d engineering');
ENDSEC;
END-ISO-10303-21;
