ISO-10303-21;
HEADER;
/* Generated by software containing ST-Developer
 * from STEP Tools, Inc. (www.steptools.com) 
 */
/* OPTION: using custom renumber hook */

FILE_DESCRIPTION(
/* description */ ('STEP AP242',
'CAx-IF Rec.Pracs.---Representation and Presentation of Product Manufa
cturing Information (PMI)---4.0---2014-10-13',
'CAx-IF Rec.Pracs.---3D Tessellated Geometry---0.4---2014-09-14','2;1'),

/* implementation_level */ '2;1');

FILE_NAME(
/* name */ '62839922015bed0053e36b9b',
/* time_stamp */ '2022-05-17T12:46:26+00:00',
/* author */ (''),
/* organization */ (''),
/* preprocessor_version */ 'ST-DEVELOPER v18.102',
/* originating_system */ '  ',
/* authorisation */ '  ');

FILE_SCHEMA (('AP242_MANAGED_MODEL_BASED_3D_ENGINEERING_MIM_LF { 1 0 10303 442 1 1 4 }'));
ENDSEC;

DATA;
#10=SHAPE_REPRESENTATION_RELATIONSHIP('','',#257,#11);
#11=ADVANCED_BREP_SHAPE_REPRESENTATION('',(#255),#413);
#12=CIRCLE('',#261,0.004064);
#13=CIRCLE('',#262,0.004064);
#14=CIRCLE('',#268,0.004064);
#15=CIRCLE('',#269,0.004064);
#16=CIRCLE('',#274,0.005207);
#17=CIRCLE('',#275,0.005207);
#18=CYLINDRICAL_SURFACE('',#260,0.004064);
#19=CYLINDRICAL_SURFACE('',#267,0.004064);
#20=CYLINDRICAL_SURFACE('',#273,0.005207);
#21=ORIENTED_EDGE('',*,*,#85,.F.);
#22=ORIENTED_EDGE('',*,*,#86,.F.);
#23=ORIENTED_EDGE('',*,*,#87,.T.);
#24=ORIENTED_EDGE('',*,*,#88,.T.);
#25=ORIENTED_EDGE('',*,*,#89,.F.);
#26=ORIENTED_EDGE('',*,*,#90,.F.);
#27=ORIENTED_EDGE('',*,*,#91,.T.);
#28=ORIENTED_EDGE('',*,*,#86,.T.);
#29=ORIENTED_EDGE('',*,*,#92,.T.);
#30=ORIENTED_EDGE('',*,*,#93,.F.);
#31=ORIENTED_EDGE('',*,*,#94,.F.);
#32=ORIENTED_EDGE('',*,*,#90,.T.);
#33=ORIENTED_EDGE('',*,*,#95,.T.);
#34=ORIENTED_EDGE('',*,*,#96,.F.);
#35=ORIENTED_EDGE('',*,*,#97,.F.);
#36=ORIENTED_EDGE('',*,*,#93,.T.);
#37=ORIENTED_EDGE('',*,*,#98,.T.);
#38=ORIENTED_EDGE('',*,*,#99,.F.);
#39=ORIENTED_EDGE('',*,*,#100,.F.);
#40=ORIENTED_EDGE('',*,*,#96,.T.);
#41=ORIENTED_EDGE('',*,*,#101,.F.);
#42=ORIENTED_EDGE('',*,*,#102,.F.);
#43=ORIENTED_EDGE('',*,*,#103,.T.);
#44=ORIENTED_EDGE('',*,*,#99,.T.);
#45=ORIENTED_EDGE('',*,*,#104,.F.);
#46=ORIENTED_EDGE('',*,*,#105,.F.);
#47=ORIENTED_EDGE('',*,*,#106,.T.);
#48=ORIENTED_EDGE('',*,*,#102,.T.);
#49=ORIENTED_EDGE('',*,*,#107,.T.);
#50=ORIENTED_EDGE('',*,*,#108,.F.);
#51=ORIENTED_EDGE('',*,*,#109,.F.);
#52=ORIENTED_EDGE('',*,*,#105,.T.);
#53=ORIENTED_EDGE('',*,*,#110,.F.);
#54=ORIENTED_EDGE('',*,*,#111,.F.);
#55=ORIENTED_EDGE('',*,*,#112,.T.);
#56=ORIENTED_EDGE('',*,*,#108,.T.);
#57=ORIENTED_EDGE('',*,*,#113,.F.);
#58=ORIENTED_EDGE('',*,*,#88,.F.);
#59=ORIENTED_EDGE('',*,*,#114,.T.);
#60=ORIENTED_EDGE('',*,*,#111,.T.);
#61=ORIENTED_EDGE('',*,*,#115,.T.);
#62=ORIENTED_EDGE('',*,*,#116,.F.);
#63=ORIENTED_EDGE('',*,*,#87,.F.);
#64=ORIENTED_EDGE('',*,*,#91,.F.);
#65=ORIENTED_EDGE('',*,*,#94,.T.);
#66=ORIENTED_EDGE('',*,*,#97,.T.);
#67=ORIENTED_EDGE('',*,*,#100,.T.);
#68=ORIENTED_EDGE('',*,*,#103,.F.);
#69=ORIENTED_EDGE('',*,*,#106,.F.);
#70=ORIENTED_EDGE('',*,*,#109,.T.);
#71=ORIENTED_EDGE('',*,*,#112,.F.);
#72=ORIENTED_EDGE('',*,*,#114,.F.);
#73=ORIENTED_EDGE('',*,*,#115,.F.);
#74=ORIENTED_EDGE('',*,*,#85,.T.);
#75=ORIENTED_EDGE('',*,*,#113,.T.);
#76=ORIENTED_EDGE('',*,*,#110,.T.);
#77=ORIENTED_EDGE('',*,*,#107,.F.);
#78=ORIENTED_EDGE('',*,*,#104,.T.);
#79=ORIENTED_EDGE('',*,*,#101,.T.);
#80=ORIENTED_EDGE('',*,*,#98,.F.);
#81=ORIENTED_EDGE('',*,*,#95,.F.);
#82=ORIENTED_EDGE('',*,*,#92,.F.);
#83=ORIENTED_EDGE('',*,*,#89,.T.);
#84=ORIENTED_EDGE('',*,*,#116,.T.);
#85=EDGE_CURVE('',#117,#118,#139,.T.);
#86=EDGE_CURVE('',#119,#117,#140,.T.);
#87=EDGE_CURVE('',#119,#120,#141,.T.);
#88=EDGE_CURVE('',#120,#118,#142,.T.);
#89=EDGE_CURVE('',#121,#117,#12,.T.);
#90=EDGE_CURVE('',#122,#121,#143,.T.);
#91=EDGE_CURVE('',#122,#119,#13,.T.);
#92=EDGE_CURVE('',#121,#123,#144,.T.);
#93=EDGE_CURVE('',#124,#123,#145,.T.);
#94=EDGE_CURVE('',#122,#124,#146,.T.);
#95=EDGE_CURVE('',#123,#125,#147,.T.);
#96=EDGE_CURVE('',#126,#125,#148,.T.);
#97=EDGE_CURVE('',#124,#126,#149,.T.);
#98=EDGE_CURVE('',#125,#127,#150,.T.);
#99=EDGE_CURVE('',#128,#127,#151,.T.);
#100=EDGE_CURVE('',#126,#128,#152,.T.);
#101=EDGE_CURVE('',#129,#127,#153,.T.);
#102=EDGE_CURVE('',#130,#129,#154,.T.);
#103=EDGE_CURVE('',#130,#128,#155,.T.);
#104=EDGE_CURVE('',#131,#129,#14,.T.);
#105=EDGE_CURVE('',#132,#131,#156,.T.);
#106=EDGE_CURVE('',#132,#130,#15,.T.);
#107=EDGE_CURVE('',#131,#133,#157,.T.);
#108=EDGE_CURVE('',#134,#133,#158,.T.);
#109=EDGE_CURVE('',#132,#134,#159,.T.);
#110=EDGE_CURVE('',#135,#133,#160,.T.);
#111=EDGE_CURVE('',#136,#135,#161,.T.);
#112=EDGE_CURVE('',#136,#134,#162,.T.);
#113=EDGE_CURVE('',#118,#135,#163,.T.);
#114=EDGE_CURVE('',#120,#136,#164,.T.);
#115=EDGE_CURVE('',#137,#137,#16,.T.);
#116=EDGE_CURVE('',#138,#138,#17,.T.);
#117=VERTEX_POINT('',#347);
#118=VERTEX_POINT('',#348);
#119=VERTEX_POINT('',#350);
#120=VERTEX_POINT('',#352);
#121=VERTEX_POINT('',#356);
#122=VERTEX_POINT('',#358);
#123=VERTEX_POINT('',#362);
#124=VERTEX_POINT('',#364);
#125=VERTEX_POINT('',#368);
#126=VERTEX_POINT('',#370);
#127=VERTEX_POINT('',#374);
#128=VERTEX_POINT('',#376);
#129=VERTEX_POINT('',#380);
#130=VERTEX_POINT('',#382);
#131=VERTEX_POINT('',#386);
#132=VERTEX_POINT('',#388);
#133=VERTEX_POINT('',#392);
#134=VERTEX_POINT('',#394);
#135=VERTEX_POINT('',#398);
#136=VERTEX_POINT('',#400);
#137=VERTEX_POINT('',#407);
#138=VERTEX_POINT('',#409);
#139=LINE('',#346,#165);
#140=LINE('',#349,#166);
#141=LINE('',#351,#167);
#142=LINE('',#353,#168);
#143=LINE('',#357,#169);
#144=LINE('',#361,#170);
#145=LINE('',#363,#171);
#146=LINE('',#365,#172);
#147=LINE('',#367,#173);
#148=LINE('',#369,#174);
#149=LINE('',#371,#175);
#150=LINE('',#373,#176);
#151=LINE('',#375,#177);
#152=LINE('',#377,#178);
#153=LINE('',#379,#179);
#154=LINE('',#381,#180);
#155=LINE('',#383,#181);
#156=LINE('',#387,#182);
#157=LINE('',#391,#183);
#158=LINE('',#393,#184);
#159=LINE('',#395,#185);
#160=LINE('',#397,#186);
#161=LINE('',#399,#187);
#162=LINE('',#401,#188);
#163=LINE('',#403,#189);
#164=LINE('',#404,#190);
#165=VECTOR('',#282,1.);
#166=VECTOR('',#283,1.);
#167=VECTOR('',#284,1.);
#168=VECTOR('',#285,1.);
#169=VECTOR('',#290,1.);
#170=VECTOR('',#295,1.);
#171=VECTOR('',#296,1.);
#172=VECTOR('',#297,1.);
#173=VECTOR('',#300,1.);
#174=VECTOR('',#301,1.);
#175=VECTOR('',#302,1.);
#176=VECTOR('',#305,1.);
#177=VECTOR('',#306,1.);
#178=VECTOR('',#307,1.);
#179=VECTOR('',#310,1.);
#180=VECTOR('',#311,1.);
#181=VECTOR('',#312,1.);
#182=VECTOR('',#317,1.);
#183=VECTOR('',#322,1.);
#184=VECTOR('',#323,1.);
#185=VECTOR('',#324,1.);
#186=VECTOR('',#327,1.);
#187=VECTOR('',#328,1.);
#188=VECTOR('',#329,1.);
#189=VECTOR('',#332,1.);
#190=VECTOR('',#333,1.);
#191=EDGE_LOOP('',(#21,#22,#23,#24));
#192=EDGE_LOOP('',(#25,#26,#27,#28));
#193=EDGE_LOOP('',(#29,#30,#31,#32));
#194=EDGE_LOOP('',(#33,#34,#35,#36));
#195=EDGE_LOOP('',(#37,#38,#39,#40));
#196=EDGE_LOOP('',(#41,#42,#43,#44));
#197=EDGE_LOOP('',(#45,#46,#47,#48));
#198=EDGE_LOOP('',(#49,#50,#51,#52));
#199=EDGE_LOOP('',(#53,#54,#55,#56));
#200=EDGE_LOOP('',(#57,#58,#59,#60));
#201=EDGE_LOOP('',(#61));
#202=EDGE_LOOP('',(#62));
#203=EDGE_LOOP('',(#63,#64,#65,#66,#67,#68,#69,#70,#71,#72));
#204=EDGE_LOOP('',(#73));
#205=EDGE_LOOP('',(#74,#75,#76,#77,#78,#79,#80,#81,#82,#83));
#206=EDGE_LOOP('',(#84));
#207=FACE_BOUND('',#191,.T.);
#208=FACE_BOUND('',#192,.T.);
#209=FACE_BOUND('',#193,.T.);
#210=FACE_BOUND('',#194,.T.);
#211=FACE_BOUND('',#195,.T.);
#212=FACE_BOUND('',#196,.T.);
#213=FACE_BOUND('',#197,.T.);
#214=FACE_BOUND('',#198,.T.);
#215=FACE_BOUND('',#199,.T.);
#216=FACE_BOUND('',#200,.T.);
#217=FACE_BOUND('',#201,.T.);
#218=FACE_BOUND('',#202,.T.);
#219=FACE_BOUND('',#203,.T.);
#220=FACE_BOUND('',#204,.T.);
#221=FACE_BOUND('',#205,.T.);
#222=FACE_BOUND('',#206,.T.);
#223=PLANE('',#259);
#224=PLANE('',#263);
#225=PLANE('',#264);
#226=PLANE('',#265);
#227=PLANE('',#266);
#228=PLANE('',#270);
#229=PLANE('',#271);
#230=PLANE('',#272);
#231=PLANE('',#276);
#232=PLANE('',#277);
#233=ADVANCED_FACE('',(#207),#223,.T.);
#234=ADVANCED_FACE('',(#208),#18,.F.);
#235=ADVANCED_FACE('',(#209),#224,.F.);
#236=ADVANCED_FACE('',(#210),#225,.F.);
#237=ADVANCED_FACE('',(#211),#226,.F.);
#238=ADVANCED_FACE('',(#212),#227,.T.);
#239=ADVANCED_FACE('',(#213),#19,.F.);
#240=ADVANCED_FACE('',(#214),#228,.F.);
#241=ADVANCED_FACE('',(#215),#229,.T.);
#242=ADVANCED_FACE('',(#216),#230,.T.);
#243=ADVANCED_FACE('',(#217,#218),#20,.F.);
#244=ADVANCED_FACE('',(#219,#220),#231,.T.);
#245=ADVANCED_FACE('',(#221,#222),#232,.F.);
#246=CLOSED_SHELL('',(#233,#234,#235,#236,#237,#238,#239,#240,#241,#242,
#243,#244,#245));
#247=STYLED_ITEM('',(#248),#255);
#248=PRESENTATION_STYLE_ASSIGNMENT((#249));
#249=SURFACE_STYLE_USAGE(.BOTH.,#250);
#250=SURFACE_SIDE_STYLE('',(#251));
#251=SURFACE_STYLE_FILL_AREA(#252);
#252=FILL_AREA_STYLE('',(#253));
#253=FILL_AREA_STYLE_COLOUR('',#254);
#254=COLOUR_RGB('',0.498039215686275,0.498039215686275,0.498039215686275);
#255=MANIFOLD_SOLID_BREP('DSCP012-M225',#246);
#256=SHAPE_DEFINITION_REPRESENTATION(#418,#257);
#257=SHAPE_REPRESENTATION('DSCP012-M225',(#258),#413);
#258=AXIS2_PLACEMENT_3D('',#344,#278,#279);
#259=AXIS2_PLACEMENT_3D('',#345,#280,#281);
#260=AXIS2_PLACEMENT_3D('',#354,#286,#287);
#261=AXIS2_PLACEMENT_3D('',#355,#288,#289);
#262=AXIS2_PLACEMENT_3D('',#359,#291,#292);
#263=AXIS2_PLACEMENT_3D('',#360,#293,#294);
#264=AXIS2_PLACEMENT_3D('',#366,#298,#299);
#265=AXIS2_PLACEMENT_3D('',#372,#303,#304);
#266=AXIS2_PLACEMENT_3D('',#378,#308,#309);
#267=AXIS2_PLACEMENT_3D('',#384,#313,#314);
#268=AXIS2_PLACEMENT_3D('',#385,#315,#316);
#269=AXIS2_PLACEMENT_3D('',#389,#318,#319);
#270=AXIS2_PLACEMENT_3D('',#390,#320,#321);
#271=AXIS2_PLACEMENT_3D('',#396,#325,#326);
#272=AXIS2_PLACEMENT_3D('',#402,#330,#331);
#273=AXIS2_PLACEMENT_3D('',#405,#334,#335);
#274=AXIS2_PLACEMENT_3D('',#406,#336,#337);
#275=AXIS2_PLACEMENT_3D('',#408,#338,#339);
#276=AXIS2_PLACEMENT_3D('',#410,#340,#341);
#277=AXIS2_PLACEMENT_3D('',#411,#342,#343);
#278=DIRECTION('',(0.,0.,1.));
#279=DIRECTION('',(1.,0.,0.));
#280=DIRECTION('',(0.999948163459148,0.0101818659722888,0.));
#281=DIRECTION('',(-0.0101818659722888,0.999948163459148,0.));
#282=DIRECTION('',(0.0101818659722888,-0.999948163459148,0.));
#283=DIRECTION('',(0.,0.,-1.));
#284=DIRECTION('',(0.0101818659722888,-0.999948163459148,0.));
#285=DIRECTION('',(0.,0.,-1.));
#286=DIRECTION('',(0.,0.,-1.));
#287=DIRECTION('',(-1.,0.,0.));
#288=DIRECTION('',(0.,0.,1.));
#289=DIRECTION('',(1.,0.,0.));
#290=DIRECTION('',(0.,0.,-1.));
#291=DIRECTION('',(0.,0.,1.));
#292=DIRECTION('',(1.,0.,0.));
#293=DIRECTION('',(0.,1.,0.));
#294=DIRECTION('',(0.,0.,1.));
#295=DIRECTION('',(1.,0.,0.));
#296=DIRECTION('',(0.,0.,-1.));
#297=DIRECTION('',(1.,0.,0.));
#298=DIRECTION('',(-1.,0.,0.));
#299=DIRECTION('',(0.,0.,1.));
#300=DIRECTION('',(0.,1.,0.));
#301=DIRECTION('',(0.,0.,-1.));
#302=DIRECTION('',(0.,1.,0.));
#303=DIRECTION('',(1.62609999622873E-16,-1.,0.));
#304=DIRECTION('',(1.,1.62609999622873E-16,0.));
#305=DIRECTION('',(-1.,-1.62609999622873E-16,0.));
#306=DIRECTION('',(0.,0.,-1.));
#307=DIRECTION('',(-1.,-1.62609999622873E-16,0.));
#308=DIRECTION('',(-1.,0.,0.));
#309=DIRECTION('',(0.,0.,1.));
#310=DIRECTION('',(0.,1.,0.));
#311=DIRECTION('',(0.,0.,-1.));
#312=DIRECTION('',(0.,1.,0.));
#313=DIRECTION('',(0.,0.,-1.));
#314=DIRECTION('',(-1.,0.,0.));
#315=DIRECTION('',(0.,0.,1.));
#316=DIRECTION('',(1.,0.,0.));
#317=DIRECTION('',(0.,0.,-1.));
#318=DIRECTION('',(0.,0.,1.));
#319=DIRECTION('',(1.,0.,0.));
#320=DIRECTION('',(0.,-1.,0.));
#321=DIRECTION('',(0.,0.,-1.));
#322=DIRECTION('',(-1.,0.,0.));
#323=DIRECTION('',(0.,0.,-1.));
#324=DIRECTION('',(-1.,0.,0.));
#325=DIRECTION('',(-1.,1.27656448302068E-16,0.));
#326=DIRECTION('',(-1.27656448302068E-16,-1.,0.));
#327=DIRECTION('',(1.27656448302068E-16,1.,0.));
#328=DIRECTION('',(0.,0.,-1.));
#329=DIRECTION('',(1.27656448302068E-16,1.,0.));
#330=DIRECTION('',(1.62118703052757E-16,-1.,0.));
#331=DIRECTION('',(1.,1.62118703052757E-16,0.));
#332=DIRECTION('',(-1.,-1.62118703052757E-16,0.));
#333=DIRECTION('',(-1.,-1.62118703052757E-16,0.));
#334=DIRECTION('',(0.,0.,-1.));
#335=DIRECTION('',(-1.,0.,0.));
#336=DIRECTION('',(0.,0.,1.));
#337=DIRECTION('',(1.,0.,0.));
#338=DIRECTION('',(0.,0.,1.));
#339=DIRECTION('',(1.,0.,0.));
#340=DIRECTION('',(0.,0.,1.));
#341=DIRECTION('',(1.,0.,0.));
#342=DIRECTION('',(0.,0.,1.));
#343=DIRECTION('',(1.,0.,0.));
#344=CARTESIAN_POINT('',(0.,0.,0.));
#345=CARTESIAN_POINT('',(0.00533442131648397,-0.0124873769583617,0.00225));
#346=CARTESIAN_POINT('',(0.00533442131648397,-0.0124873769583617,0.));
#347=CARTESIAN_POINT('',(0.005334,-0.012446,0.));
#348=CARTESIAN_POINT('',(0.00539865820058148,-0.018796,0.));
#349=CARTESIAN_POINT('',(0.005334,-0.012446,0.00225));
#350=CARTESIAN_POINT('',(0.005334,-0.012446,0.00225));
#351=CARTESIAN_POINT('',(0.00533442131648397,-0.0124873769583617,0.00225));
#352=CARTESIAN_POINT('',(0.00539865820058148,-0.018796,0.00225));
#353=CARTESIAN_POINT('',(0.00539865820058148,-0.018796,0.00225));
#354=CARTESIAN_POINT('',(0.009398,-0.012446,0.00225));
#355=CARTESIAN_POINT('',(0.009398,-0.012446,0.));
#356=CARTESIAN_POINT('',(0.009398,-0.008382,0.));
#357=CARTESIAN_POINT('',(0.009398,-0.008382,0.00225));
#358=CARTESIAN_POINT('',(0.009398,-0.008382,0.00225));
#359=CARTESIAN_POINT('',(0.009398,-0.012446,0.00225));
#360=CARTESIAN_POINT('',(0.0127,-0.008382,0.00225));
#361=CARTESIAN_POINT('',(0.0127,-0.008382,0.));
#362=CARTESIAN_POINT('',(0.016002,-0.008382,0.));
#363=CARTESIAN_POINT('',(0.016002,-0.008382,0.00225));
#364=CARTESIAN_POINT('',(0.016002,-0.008382,0.00225));
#365=CARTESIAN_POINT('',(0.0127,-0.008382,0.00225));
#366=CARTESIAN_POINT('',(0.016002,0.005207,0.00225));
#367=CARTESIAN_POINT('',(0.016002,0.005207,0.));
#368=CARTESIAN_POINT('',(0.016002,0.018796,0.));
#369=CARTESIAN_POINT('',(0.016002,0.018796,0.00225));
#370=CARTESIAN_POINT('',(0.016002,0.018796,0.00225));
#371=CARTESIAN_POINT('',(0.016002,0.005207,0.00225));
#372=CARTESIAN_POINT('',(0.005334,0.018796,0.00225));
#373=CARTESIAN_POINT('',(0.005334,0.018796,0.));
#374=CARTESIAN_POINT('',(-0.005334,0.018796,0.));
#375=CARTESIAN_POINT('',(-0.005334,0.018796,0.00225));
#376=CARTESIAN_POINT('',(-0.005334,0.018796,0.00225));
#377=CARTESIAN_POINT('',(0.005334,0.018796,0.00225));
#378=CARTESIAN_POINT('',(-0.005334,0.015621,0.00225));
#379=CARTESIAN_POINT('',(-0.005334,0.015621,0.));
#380=CARTESIAN_POINT('',(-0.005334,0.012446,0.));
#381=CARTESIAN_POINT('',(-0.005334,0.012446,0.00225));
#382=CARTESIAN_POINT('',(-0.005334,0.012446,0.00225));
#383=CARTESIAN_POINT('',(-0.005334,0.015621,0.00225));
#384=CARTESIAN_POINT('',(-0.009398,0.012446,0.00225));
#385=CARTESIAN_POINT('',(-0.009398,0.012446,0.));
#386=CARTESIAN_POINT('',(-0.009398,0.008382,0.));
#387=CARTESIAN_POINT('',(-0.009398,0.008382,0.00225));
#388=CARTESIAN_POINT('',(-0.009398,0.008382,0.00225));
#389=CARTESIAN_POINT('',(-0.009398,0.012446,0.00225));
#390=CARTESIAN_POINT('',(-0.0127,0.008382,0.00225));
#391=CARTESIAN_POINT('',(-0.0127,0.008382,0.));
#392=CARTESIAN_POINT('',(-0.016002,0.008382,0.));
#393=CARTESIAN_POINT('',(-0.016002,0.008382,0.00225));
#394=CARTESIAN_POINT('',(-0.016002,0.008382,0.00225));
#395=CARTESIAN_POINT('',(-0.0127,0.008382,0.00225));
#396=CARTESIAN_POINT('',(-0.016002,-0.005207,0.00225));
#397=CARTESIAN_POINT('',(-0.016002,-0.005207,0.));
#398=CARTESIAN_POINT('',(-0.016002,-0.018796,0.));
#399=CARTESIAN_POINT('',(-0.016002,-0.018796,0.00225));
#400=CARTESIAN_POINT('',(-0.016002,-0.018796,0.00225));
#401=CARTESIAN_POINT('',(-0.016002,-0.005207,0.00225));
#402=CARTESIAN_POINT('',(-0.00530167089970926,-0.018796,0.00225));
#403=CARTESIAN_POINT('',(-0.00530167089970926,-0.018796,0.));
#404=CARTESIAN_POINT('',(-0.00530167089970926,-0.018796,0.00225));
#405=CARTESIAN_POINT('',(0.,3.18836794158014E-19,0.00225));
#406=CARTESIAN_POINT('',(0.,3.18836794158014E-19,0.00225));
#407=CARTESIAN_POINT('',(0.005207,3.18836794158014E-19,0.00225));
#408=CARTESIAN_POINT('',(0.,3.18836794158014E-19,0.));
#409=CARTESIAN_POINT('',(0.005207,3.18836794158014E-19,0.));
#410=CARTESIAN_POINT('',(3.46944695195361E-18,3.46944695195361E-18,0.00225));
#411=CARTESIAN_POINT('',(3.46944695195361E-18,3.46944695195361E-18,0.));
#412=MECHANICAL_DESIGN_GEOMETRIC_PRESENTATION_REPRESENTATION('',(#247),
#413);
#413=(
GEOMETRIC_REPRESENTATION_CONTEXT(3)
GLOBAL_UNCERTAINTY_ASSIGNED_CONTEXT((#414))
GLOBAL_UNIT_ASSIGNED_CONTEXT((#417,#416,#415))
REPRESENTATION_CONTEXT('DSCP012-M225','TOP_LEVEL_ASSEMBLY_PART')
);
#414=UNCERTAINTY_MEASURE_WITH_UNIT(LENGTH_MEASURE(5.E-6),#417,
'DISTANCE_ACCURACY_VALUE','Maximum Tolerance applied to model');
#415=(
NAMED_UNIT(*)
SI_UNIT($,.STERADIAN.)
SOLID_ANGLE_UNIT()
);
#416=(
NAMED_UNIT(*)
PLANE_ANGLE_UNIT()
SI_UNIT($,.RADIAN.)
);
#417=(
LENGTH_UNIT()
NAMED_UNIT(*)
SI_UNIT($,.METRE.)
);
#418=PRODUCT_DEFINITION_SHAPE('','',#419);
#419=PRODUCT_DEFINITION('','',#421,#420);
#420=PRODUCT_DEFINITION_CONTEXT('',#427,'design');
#421=PRODUCT_DEFINITION_FORMATION_WITH_SPECIFIED_SOURCE('','',#423,
 .NOT_KNOWN.);
#422=PRODUCT_RELATED_PRODUCT_CATEGORY('','',(#423));
#423=PRODUCT('DSCP012-M225','DSCP012-M225','DSCP012-M225',(#425));
#424=PRODUCT_CATEGORY('','');
#425=PRODUCT_CONTEXT('',#427,'mechanical');
#426=APPLICATION_PROTOCOL_DEFINITION('international standard',
'ap242_managed_model_based_3d_engineering',2011,#427);
#427=APPLICATION_CONTEXT('managed model based 3d engineering');
ENDSEC;
END-ISO-10303-21;
