ISO-10303-21;
HEADER;
/* Generated by software containing ST-Developer
 * from STEP Tools, Inc. (www.steptools.com) 
 */
/* OPTION: using custom renumber hook */

FILE_DESCRIPTION(
/* description */ ('STEP AP242',
'CAx-IF Rec.Pracs.---Representation and Presentation of Product Manufa
cturing Information (PMI)---4.0---2014-10-13',
'CAx-IF Rec.Pracs.---3D Tessellated Geometry---0.4---2014-09-14','2;1'),

/* implementation_level */ '2;1');

FILE_NAME(
/* name */ '6283ce4c081f5750d4a58adb',
/* time_stamp */ '2022-05-17T16:33:16+00:00',
/* author */ (''),
/* organization */ (''),
/* preprocessor_version */ 'ST-DEVELOPER v18.102',
/* originating_system */ '  ',
/* authorisation */ '  ');

FILE_SCHEMA (('AP242_MANAGED_MODEL_BASED_3D_ENGINEERING_MIM_LF { 1 0 10303 442 1 1 4 }'));
ENDSEC;

DATA;
#10=SHAPE_REPRESENTATION_RELATIONSHIP('','',#463,#11);
#11=ADVANCED_BREP_SHAPE_REPRESENTATION('',(#461),#747);
#12=CIRCLE('',#468,0.00508);
#13=CIRCLE('',#469,0.00508);
#14=CIRCLE('',#476,0.00508);
#15=CIRCLE('',#477,0.00508);
#16=CIRCLE('',#482,0.00508);
#17=CIRCLE('',#483,0.00508);
#18=CIRCLE('',#490,0.00508);
#19=CIRCLE('',#491,0.00508);
#20=CIRCLE('',#494,0.005207);
#21=CIRCLE('',#495,0.005207);
#22=CYLINDRICAL_SURFACE('',#467,0.00508);
#23=CYLINDRICAL_SURFACE('',#475,0.00508);
#24=CYLINDRICAL_SURFACE('',#481,0.00508);
#25=CYLINDRICAL_SURFACE('',#489,0.00508);
#26=CYLINDRICAL_SURFACE('',#493,0.005207);
#27=ORIENTED_EDGE('',*,*,#151,.F.);
#28=ORIENTED_EDGE('',*,*,#152,.F.);
#29=ORIENTED_EDGE('',*,*,#153,.T.);
#30=ORIENTED_EDGE('',*,*,#154,.T.);
#31=ORIENTED_EDGE('',*,*,#155,.F.);
#32=ORIENTED_EDGE('',*,*,#156,.F.);
#33=ORIENTED_EDGE('',*,*,#157,.T.);
#34=ORIENTED_EDGE('',*,*,#152,.T.);
#35=ORIENTED_EDGE('',*,*,#158,.F.);
#36=ORIENTED_EDGE('',*,*,#159,.F.);
#37=ORIENTED_EDGE('',*,*,#160,.T.);
#38=ORIENTED_EDGE('',*,*,#156,.T.);
#39=ORIENTED_EDGE('',*,*,#161,.T.);
#40=ORIENTED_EDGE('',*,*,#162,.F.);
#41=ORIENTED_EDGE('',*,*,#163,.F.);
#42=ORIENTED_EDGE('',*,*,#159,.T.);
#43=ORIENTED_EDGE('',*,*,#164,.F.);
#44=ORIENTED_EDGE('',*,*,#165,.F.);
#45=ORIENTED_EDGE('',*,*,#166,.T.);
#46=ORIENTED_EDGE('',*,*,#162,.T.);
#47=ORIENTED_EDGE('',*,*,#167,.T.);
#48=ORIENTED_EDGE('',*,*,#168,.F.);
#49=ORIENTED_EDGE('',*,*,#169,.F.);
#50=ORIENTED_EDGE('',*,*,#165,.T.);
#51=ORIENTED_EDGE('',*,*,#170,.T.);
#52=ORIENTED_EDGE('',*,*,#171,.F.);
#53=ORIENTED_EDGE('',*,*,#172,.F.);
#54=ORIENTED_EDGE('',*,*,#168,.T.);
#55=ORIENTED_EDGE('',*,*,#173,.F.);
#56=ORIENTED_EDGE('',*,*,#174,.F.);
#57=ORIENTED_EDGE('',*,*,#175,.T.);
#58=ORIENTED_EDGE('',*,*,#171,.T.);
#59=ORIENTED_EDGE('',*,*,#176,.F.);
#60=ORIENTED_EDGE('',*,*,#177,.F.);
#61=ORIENTED_EDGE('',*,*,#178,.T.);
#62=ORIENTED_EDGE('',*,*,#174,.T.);
#63=ORIENTED_EDGE('',*,*,#179,.T.);
#64=ORIENTED_EDGE('',*,*,#180,.F.);
#65=ORIENTED_EDGE('',*,*,#181,.F.);
#66=ORIENTED_EDGE('',*,*,#177,.T.);
#67=ORIENTED_EDGE('',*,*,#182,.T.);
#68=ORIENTED_EDGE('',*,*,#183,.F.);
#69=ORIENTED_EDGE('',*,*,#184,.F.);
#70=ORIENTED_EDGE('',*,*,#180,.T.);
#71=ORIENTED_EDGE('',*,*,#185,.F.);
#72=ORIENTED_EDGE('',*,*,#186,.F.);
#73=ORIENTED_EDGE('',*,*,#187,.T.);
#74=ORIENTED_EDGE('',*,*,#183,.T.);
#75=ORIENTED_EDGE('',*,*,#188,.F.);
#76=ORIENTED_EDGE('',*,*,#189,.F.);
#77=ORIENTED_EDGE('',*,*,#190,.T.);
#78=ORIENTED_EDGE('',*,*,#186,.T.);
#79=ORIENTED_EDGE('',*,*,#191,.T.);
#80=ORIENTED_EDGE('',*,*,#192,.F.);
#81=ORIENTED_EDGE('',*,*,#193,.F.);
#82=ORIENTED_EDGE('',*,*,#189,.T.);
#83=ORIENTED_EDGE('',*,*,#194,.T.);
#84=ORIENTED_EDGE('',*,*,#195,.F.);
#85=ORIENTED_EDGE('',*,*,#196,.F.);
#86=ORIENTED_EDGE('',*,*,#192,.T.);
#87=ORIENTED_EDGE('',*,*,#197,.F.);
#88=ORIENTED_EDGE('',*,*,#198,.F.);
#89=ORIENTED_EDGE('',*,*,#199,.T.);
#90=ORIENTED_EDGE('',*,*,#195,.T.);
#91=ORIENTED_EDGE('',*,*,#200,.F.);
#92=ORIENTED_EDGE('',*,*,#201,.F.);
#93=ORIENTED_EDGE('',*,*,#202,.T.);
#94=ORIENTED_EDGE('',*,*,#198,.T.);
#95=ORIENTED_EDGE('',*,*,#203,.F.);
#96=ORIENTED_EDGE('',*,*,#204,.F.);
#97=ORIENTED_EDGE('',*,*,#205,.T.);
#98=ORIENTED_EDGE('',*,*,#201,.T.);
#99=ORIENTED_EDGE('',*,*,#206,.F.);
#100=ORIENTED_EDGE('',*,*,#207,.F.);
#101=ORIENTED_EDGE('',*,*,#208,.T.);
#102=ORIENTED_EDGE('',*,*,#204,.T.);
#103=ORIENTED_EDGE('',*,*,#209,.T.);
#104=ORIENTED_EDGE('',*,*,#154,.F.);
#105=ORIENTED_EDGE('',*,*,#210,.F.);
#106=ORIENTED_EDGE('',*,*,#207,.T.);
#107=ORIENTED_EDGE('',*,*,#211,.T.);
#108=ORIENTED_EDGE('',*,*,#212,.F.);
#109=ORIENTED_EDGE('',*,*,#153,.F.);
#110=ORIENTED_EDGE('',*,*,#157,.F.);
#111=ORIENTED_EDGE('',*,*,#160,.F.);
#112=ORIENTED_EDGE('',*,*,#163,.T.);
#113=ORIENTED_EDGE('',*,*,#166,.F.);
#114=ORIENTED_EDGE('',*,*,#169,.T.);
#115=ORIENTED_EDGE('',*,*,#172,.T.);
#116=ORIENTED_EDGE('',*,*,#175,.F.);
#117=ORIENTED_EDGE('',*,*,#178,.F.);
#118=ORIENTED_EDGE('',*,*,#181,.T.);
#119=ORIENTED_EDGE('',*,*,#184,.T.);
#120=ORIENTED_EDGE('',*,*,#187,.F.);
#121=ORIENTED_EDGE('',*,*,#190,.F.);
#122=ORIENTED_EDGE('',*,*,#193,.T.);
#123=ORIENTED_EDGE('',*,*,#196,.T.);
#124=ORIENTED_EDGE('',*,*,#199,.F.);
#125=ORIENTED_EDGE('',*,*,#202,.F.);
#126=ORIENTED_EDGE('',*,*,#205,.F.);
#127=ORIENTED_EDGE('',*,*,#208,.F.);
#128=ORIENTED_EDGE('',*,*,#210,.T.);
#129=ORIENTED_EDGE('',*,*,#211,.F.);
#130=ORIENTED_EDGE('',*,*,#151,.T.);
#131=ORIENTED_EDGE('',*,*,#209,.F.);
#132=ORIENTED_EDGE('',*,*,#206,.T.);
#133=ORIENTED_EDGE('',*,*,#203,.T.);
#134=ORIENTED_EDGE('',*,*,#200,.T.);
#135=ORIENTED_EDGE('',*,*,#197,.T.);
#136=ORIENTED_EDGE('',*,*,#194,.F.);
#137=ORIENTED_EDGE('',*,*,#191,.F.);
#138=ORIENTED_EDGE('',*,*,#188,.T.);
#139=ORIENTED_EDGE('',*,*,#185,.T.);
#140=ORIENTED_EDGE('',*,*,#182,.F.);
#141=ORIENTED_EDGE('',*,*,#179,.F.);
#142=ORIENTED_EDGE('',*,*,#176,.T.);
#143=ORIENTED_EDGE('',*,*,#173,.T.);
#144=ORIENTED_EDGE('',*,*,#170,.F.);
#145=ORIENTED_EDGE('',*,*,#167,.F.);
#146=ORIENTED_EDGE('',*,*,#164,.T.);
#147=ORIENTED_EDGE('',*,*,#161,.F.);
#148=ORIENTED_EDGE('',*,*,#158,.T.);
#149=ORIENTED_EDGE('',*,*,#155,.T.);
#150=ORIENTED_EDGE('',*,*,#212,.T.);
#151=EDGE_CURVE('',#213,#214,#255,.T.);
#152=EDGE_CURVE('',#215,#213,#256,.T.);
#153=EDGE_CURVE('',#215,#216,#257,.T.);
#154=EDGE_CURVE('',#216,#214,#258,.T.);
#155=EDGE_CURVE('',#217,#213,#259,.T.);
#156=EDGE_CURVE('',#218,#217,#260,.T.);
#157=EDGE_CURVE('',#218,#215,#261,.T.);
#158=EDGE_CURVE('',#219,#217,#12,.T.);
#159=EDGE_CURVE('',#220,#219,#262,.T.);
#160=EDGE_CURVE('',#220,#218,#13,.T.);
#161=EDGE_CURVE('',#219,#221,#263,.T.);
#162=EDGE_CURVE('',#222,#221,#264,.T.);
#163=EDGE_CURVE('',#220,#222,#265,.T.);
#164=EDGE_CURVE('',#223,#221,#266,.T.);
#165=EDGE_CURVE('',#224,#223,#267,.T.);
#166=EDGE_CURVE('',#224,#222,#268,.T.);
#167=EDGE_CURVE('',#223,#225,#269,.T.);
#168=EDGE_CURVE('',#226,#225,#270,.T.);
#169=EDGE_CURVE('',#224,#226,#271,.T.);
#170=EDGE_CURVE('',#225,#227,#272,.T.);
#171=EDGE_CURVE('',#228,#227,#273,.T.);
#172=EDGE_CURVE('',#226,#228,#274,.T.);
#173=EDGE_CURVE('',#229,#227,#275,.T.);
#174=EDGE_CURVE('',#230,#229,#276,.T.);
#175=EDGE_CURVE('',#230,#228,#277,.T.);
#176=EDGE_CURVE('',#231,#229,#14,.T.);
#177=EDGE_CURVE('',#232,#231,#278,.T.);
#178=EDGE_CURVE('',#232,#230,#15,.T.);
#179=EDGE_CURVE('',#231,#233,#279,.T.);
#180=EDGE_CURVE('',#234,#233,#280,.T.);
#181=EDGE_CURVE('',#232,#234,#281,.T.);
#182=EDGE_CURVE('',#233,#235,#282,.T.);
#183=EDGE_CURVE('',#236,#235,#283,.T.);
#184=EDGE_CURVE('',#234,#236,#284,.T.);
#185=EDGE_CURVE('',#237,#235,#285,.T.);
#186=EDGE_CURVE('',#238,#237,#286,.T.);
#187=EDGE_CURVE('',#238,#236,#287,.T.);
#188=EDGE_CURVE('',#239,#237,#16,.T.);
#189=EDGE_CURVE('',#240,#239,#288,.T.);
#190=EDGE_CURVE('',#240,#238,#17,.T.);
#191=EDGE_CURVE('',#239,#241,#289,.T.);
#192=EDGE_CURVE('',#242,#241,#290,.T.);
#193=EDGE_CURVE('',#240,#242,#291,.T.);
#194=EDGE_CURVE('',#241,#243,#292,.T.);
#195=EDGE_CURVE('',#244,#243,#293,.T.);
#196=EDGE_CURVE('',#242,#244,#294,.T.);
#197=EDGE_CURVE('',#245,#243,#295,.T.);
#198=EDGE_CURVE('',#246,#245,#296,.T.);
#199=EDGE_CURVE('',#246,#244,#297,.T.);
#200=EDGE_CURVE('',#247,#245,#298,.T.);
#201=EDGE_CURVE('',#248,#247,#299,.T.);
#202=EDGE_CURVE('',#248,#246,#300,.T.);
#203=EDGE_CURVE('',#249,#247,#301,.T.);
#204=EDGE_CURVE('',#250,#249,#302,.T.);
#205=EDGE_CURVE('',#250,#248,#303,.T.);
#206=EDGE_CURVE('',#251,#249,#18,.T.);
#207=EDGE_CURVE('',#252,#251,#304,.T.);
#208=EDGE_CURVE('',#252,#250,#19,.T.);
#209=EDGE_CURVE('',#251,#214,#305,.T.);
#210=EDGE_CURVE('',#252,#216,#306,.T.);
#211=EDGE_CURVE('',#253,#253,#20,.T.);
#212=EDGE_CURVE('',#254,#254,#21,.T.);
#213=VERTEX_POINT('',#621);
#214=VERTEX_POINT('',#622);
#215=VERTEX_POINT('',#624);
#216=VERTEX_POINT('',#626);
#217=VERTEX_POINT('',#630);
#218=VERTEX_POINT('',#632);
#219=VERTEX_POINT('',#636);
#220=VERTEX_POINT('',#638);
#221=VERTEX_POINT('',#642);
#222=VERTEX_POINT('',#644);
#223=VERTEX_POINT('',#648);
#224=VERTEX_POINT('',#650);
#225=VERTEX_POINT('',#654);
#226=VERTEX_POINT('',#656);
#227=VERTEX_POINT('',#660);
#228=VERTEX_POINT('',#662);
#229=VERTEX_POINT('',#666);
#230=VERTEX_POINT('',#668);
#231=VERTEX_POINT('',#672);
#232=VERTEX_POINT('',#674);
#233=VERTEX_POINT('',#678);
#234=VERTEX_POINT('',#680);
#235=VERTEX_POINT('',#684);
#236=VERTEX_POINT('',#686);
#237=VERTEX_POINT('',#690);
#238=VERTEX_POINT('',#692);
#239=VERTEX_POINT('',#696);
#240=VERTEX_POINT('',#698);
#241=VERTEX_POINT('',#702);
#242=VERTEX_POINT('',#704);
#243=VERTEX_POINT('',#708);
#244=VERTEX_POINT('',#710);
#245=VERTEX_POINT('',#714);
#246=VERTEX_POINT('',#716);
#247=VERTEX_POINT('',#720);
#248=VERTEX_POINT('',#722);
#249=VERTEX_POINT('',#726);
#250=VERTEX_POINT('',#728);
#251=VERTEX_POINT('',#732);
#252=VERTEX_POINT('',#734);
#253=VERTEX_POINT('',#741);
#254=VERTEX_POINT('',#743);
#255=LINE('',#620,#307);
#256=LINE('',#623,#308);
#257=LINE('',#625,#309);
#258=LINE('',#627,#310);
#259=LINE('',#629,#311);
#260=LINE('',#631,#312);
#261=LINE('',#633,#313);
#262=LINE('',#637,#314);
#263=LINE('',#641,#315);
#264=LINE('',#643,#316);
#265=LINE('',#645,#317);
#266=LINE('',#647,#318);
#267=LINE('',#649,#319);
#268=LINE('',#651,#320);
#269=LINE('',#653,#321);
#270=LINE('',#655,#322);
#271=LINE('',#657,#323);
#272=LINE('',#659,#324);
#273=LINE('',#661,#325);
#274=LINE('',#663,#326);
#275=LINE('',#665,#327);
#276=LINE('',#667,#328);
#277=LINE('',#669,#329);
#278=LINE('',#673,#330);
#279=LINE('',#677,#331);
#280=LINE('',#679,#332);
#281=LINE('',#681,#333);
#282=LINE('',#683,#334);
#283=LINE('',#685,#335);
#284=LINE('',#687,#336);
#285=LINE('',#689,#337);
#286=LINE('',#691,#338);
#287=LINE('',#693,#339);
#288=LINE('',#697,#340);
#289=LINE('',#701,#341);
#290=LINE('',#703,#342);
#291=LINE('',#705,#343);
#292=LINE('',#707,#344);
#293=LINE('',#709,#345);
#294=LINE('',#711,#346);
#295=LINE('',#713,#347);
#296=LINE('',#715,#348);
#297=LINE('',#717,#349);
#298=LINE('',#719,#350);
#299=LINE('',#721,#351);
#300=LINE('',#723,#352);
#301=LINE('',#725,#353);
#302=LINE('',#727,#354);
#303=LINE('',#729,#355);
#304=LINE('',#733,#356);
#305=LINE('',#737,#357);
#306=LINE('',#738,#358);
#307=VECTOR('',#502,1.);
#308=VECTOR('',#503,1.);
#309=VECTOR('',#504,1.);
#310=VECTOR('',#505,1.);
#311=VECTOR('',#508,1.);
#312=VECTOR('',#509,1.);
#313=VECTOR('',#510,1.);
#314=VECTOR('',#515,1.);
#315=VECTOR('',#520,1.);
#316=VECTOR('',#521,1.);
#317=VECTOR('',#522,1.);
#318=VECTOR('',#525,1.);
#319=VECTOR('',#526,1.);
#320=VECTOR('',#527,1.);
#321=VECTOR('',#530,1.);
#322=VECTOR('',#531,1.);
#323=VECTOR('',#532,1.);
#324=VECTOR('',#535,1.);
#325=VECTOR('',#536,1.);
#326=VECTOR('',#537,1.);
#327=VECTOR('',#540,1.);
#328=VECTOR('',#541,1.);
#329=VECTOR('',#542,1.);
#330=VECTOR('',#547,1.);
#331=VECTOR('',#552,1.);
#332=VECTOR('',#553,1.);
#333=VECTOR('',#554,1.);
#334=VECTOR('',#557,1.);
#335=VECTOR('',#558,1.);
#336=VECTOR('',#559,1.);
#337=VECTOR('',#562,1.);
#338=VECTOR('',#563,1.);
#339=VECTOR('',#564,1.);
#340=VECTOR('',#569,1.);
#341=VECTOR('',#574,1.);
#342=VECTOR('',#575,1.);
#343=VECTOR('',#576,1.);
#344=VECTOR('',#579,1.);
#345=VECTOR('',#580,1.);
#346=VECTOR('',#581,1.);
#347=VECTOR('',#584,1.);
#348=VECTOR('',#585,1.);
#349=VECTOR('',#586,1.);
#350=VECTOR('',#589,1.);
#351=VECTOR('',#590,1.);
#352=VECTOR('',#591,1.);
#353=VECTOR('',#594,1.);
#354=VECTOR('',#595,1.);
#355=VECTOR('',#596,1.);
#356=VECTOR('',#601,1.);
#357=VECTOR('',#606,1.);
#358=VECTOR('',#607,1.);
#359=EDGE_LOOP('',(#27,#28,#29,#30));
#360=EDGE_LOOP('',(#31,#32,#33,#34));
#361=EDGE_LOOP('',(#35,#36,#37,#38));
#362=EDGE_LOOP('',(#39,#40,#41,#42));
#363=EDGE_LOOP('',(#43,#44,#45,#46));
#364=EDGE_LOOP('',(#47,#48,#49,#50));
#365=EDGE_LOOP('',(#51,#52,#53,#54));
#366=EDGE_LOOP('',(#55,#56,#57,#58));
#367=EDGE_LOOP('',(#59,#60,#61,#62));
#368=EDGE_LOOP('',(#63,#64,#65,#66));
#369=EDGE_LOOP('',(#67,#68,#69,#70));
#370=EDGE_LOOP('',(#71,#72,#73,#74));
#371=EDGE_LOOP('',(#75,#76,#77,#78));
#372=EDGE_LOOP('',(#79,#80,#81,#82));
#373=EDGE_LOOP('',(#83,#84,#85,#86));
#374=EDGE_LOOP('',(#87,#88,#89,#90));
#375=EDGE_LOOP('',(#91,#92,#93,#94));
#376=EDGE_LOOP('',(#95,#96,#97,#98));
#377=EDGE_LOOP('',(#99,#100,#101,#102));
#378=EDGE_LOOP('',(#103,#104,#105,#106));
#379=EDGE_LOOP('',(#107));
#380=EDGE_LOOP('',(#108));
#381=EDGE_LOOP('',(#109,#110,#111,#112,#113,#114,#115,#116,#117,#118,#119,
#120,#121,#122,#123,#124,#125,#126,#127,#128));
#382=EDGE_LOOP('',(#129));
#383=EDGE_LOOP('',(#130,#131,#132,#133,#134,#135,#136,#137,#138,#139,#140,
#141,#142,#143,#144,#145,#146,#147,#148,#149));
#384=EDGE_LOOP('',(#150));
#385=FACE_BOUND('',#359,.T.);
#386=FACE_BOUND('',#360,.T.);
#387=FACE_BOUND('',#361,.T.);
#388=FACE_BOUND('',#362,.T.);
#389=FACE_BOUND('',#363,.T.);
#390=FACE_BOUND('',#364,.T.);
#391=FACE_BOUND('',#365,.T.);
#392=FACE_BOUND('',#366,.T.);
#393=FACE_BOUND('',#367,.T.);
#394=FACE_BOUND('',#368,.T.);
#395=FACE_BOUND('',#369,.T.);
#396=FACE_BOUND('',#370,.T.);
#397=FACE_BOUND('',#371,.T.);
#398=FACE_BOUND('',#372,.T.);
#399=FACE_BOUND('',#373,.T.);
#400=FACE_BOUND('',#374,.T.);
#401=FACE_BOUND('',#375,.T.);
#402=FACE_BOUND('',#376,.T.);
#403=FACE_BOUND('',#377,.T.);
#404=FACE_BOUND('',#378,.T.);
#405=FACE_BOUND('',#379,.T.);
#406=FACE_BOUND('',#380,.T.);
#407=FACE_BOUND('',#381,.T.);
#408=FACE_BOUND('',#382,.T.);
#409=FACE_BOUND('',#383,.T.);
#410=FACE_BOUND('',#384,.T.);
#411=PLANE('',#465);
#412=PLANE('',#466);
#413=PLANE('',#470);
#414=PLANE('',#471);
#415=PLANE('',#472);
#416=PLANE('',#473);
#417=PLANE('',#474);
#418=PLANE('',#478);
#419=PLANE('',#479);
#420=PLANE('',#480);
#421=PLANE('',#484);
#422=PLANE('',#485);
#423=PLANE('',#486);
#424=PLANE('',#487);
#425=PLANE('',#488);
#426=PLANE('',#492);
#427=PLANE('',#496);
#428=PLANE('',#497);
#429=ADVANCED_FACE('',(#385),#411,.T.);
#430=ADVANCED_FACE('',(#386),#412,.T.);
#431=ADVANCED_FACE('',(#387),#22,.F.);
#432=ADVANCED_FACE('',(#388),#413,.F.);
#433=ADVANCED_FACE('',(#389),#414,.T.);
#434=ADVANCED_FACE('',(#390),#415,.F.);
#435=ADVANCED_FACE('',(#391),#416,.F.);
#436=ADVANCED_FACE('',(#392),#417,.T.);
#437=ADVANCED_FACE('',(#393),#23,.F.);
#438=ADVANCED_FACE('',(#394),#418,.F.);
#439=ADVANCED_FACE('',(#395),#419,.F.);
#440=ADVANCED_FACE('',(#396),#420,.T.);
#441=ADVANCED_FACE('',(#397),#24,.F.);
#442=ADVANCED_FACE('',(#398),#421,.F.);
#443=ADVANCED_FACE('',(#399),#422,.F.);
#444=ADVANCED_FACE('',(#400),#423,.T.);
#445=ADVANCED_FACE('',(#401),#424,.T.);
#446=ADVANCED_FACE('',(#402),#425,.T.);
#447=ADVANCED_FACE('',(#403),#25,.F.);
#448=ADVANCED_FACE('',(#404),#426,.F.);
#449=ADVANCED_FACE('',(#405,#406),#26,.F.);
#450=ADVANCED_FACE('',(#407,#408),#427,.T.);
#451=ADVANCED_FACE('',(#409,#410),#428,.F.);
#452=CLOSED_SHELL('',(#429,#430,#431,#432,#433,#434,#435,#436,#437,#438,
#439,#440,#441,#442,#443,#444,#445,#446,#447,#448,#449,#450,#451));
#453=STYLED_ITEM('',(#454),#461);
#454=PRESENTATION_STYLE_ASSIGNMENT((#455));
#455=SURFACE_STYLE_USAGE(.BOTH.,#456);
#456=SURFACE_SIDE_STYLE('',(#457));
#457=SURFACE_STYLE_FILL_AREA(#458);
#458=FILL_AREA_STYLE('',(#459));
#459=FILL_AREA_STYLE_COLOUR('',#460);
#460=COLOUR_RGB('',0.498039215686275,0.498039215686275,0.498039215686275);
#461=MANIFOLD_SOLID_BREP('DSCP014-M225',#452);
#462=SHAPE_DEFINITION_REPRESENTATION(#752,#463);
#463=SHAPE_REPRESENTATION('DSCP014-M225',(#464),#747);
#464=AXIS2_PLACEMENT_3D('',#618,#498,#499);
#465=AXIS2_PLACEMENT_3D('',#619,#500,#501);
#466=AXIS2_PLACEMENT_3D('',#628,#506,#507);
#467=AXIS2_PLACEMENT_3D('',#634,#511,#512);
#468=AXIS2_PLACEMENT_3D('',#635,#513,#514);
#469=AXIS2_PLACEMENT_3D('',#639,#516,#517);
#470=AXIS2_PLACEMENT_3D('',#640,#518,#519);
#471=AXIS2_PLACEMENT_3D('',#646,#523,#524);
#472=AXIS2_PLACEMENT_3D('',#652,#528,#529);
#473=AXIS2_PLACEMENT_3D('',#658,#533,#534);
#474=AXIS2_PLACEMENT_3D('',#664,#538,#539);
#475=AXIS2_PLACEMENT_3D('',#670,#543,#544);
#476=AXIS2_PLACEMENT_3D('',#671,#545,#546);
#477=AXIS2_PLACEMENT_3D('',#675,#548,#549);
#478=AXIS2_PLACEMENT_3D('',#676,#550,#551);
#479=AXIS2_PLACEMENT_3D('',#682,#555,#556);
#480=AXIS2_PLACEMENT_3D('',#688,#560,#561);
#481=AXIS2_PLACEMENT_3D('',#694,#565,#566);
#482=AXIS2_PLACEMENT_3D('',#695,#567,#568);
#483=AXIS2_PLACEMENT_3D('',#699,#570,#571);
#484=AXIS2_PLACEMENT_3D('',#700,#572,#573);
#485=AXIS2_PLACEMENT_3D('',#706,#577,#578);
#486=AXIS2_PLACEMENT_3D('',#712,#582,#583);
#487=AXIS2_PLACEMENT_3D('',#718,#587,#588);
#488=AXIS2_PLACEMENT_3D('',#724,#592,#593);
#489=AXIS2_PLACEMENT_3D('',#730,#597,#598);
#490=AXIS2_PLACEMENT_3D('',#731,#599,#600);
#491=AXIS2_PLACEMENT_3D('',#735,#602,#603);
#492=AXIS2_PLACEMENT_3D('',#736,#604,#605);
#493=AXIS2_PLACEMENT_3D('',#739,#608,#609);
#494=AXIS2_PLACEMENT_3D('',#740,#610,#611);
#495=AXIS2_PLACEMENT_3D('',#742,#612,#613);
#496=AXIS2_PLACEMENT_3D('',#744,#614,#615);
#497=AXIS2_PLACEMENT_3D('',#745,#616,#617);
#498=DIRECTION('',(0.,0.,1.));
#499=DIRECTION('',(1.,0.,0.));
#500=DIRECTION('',(1.11960983346896E-16,-1.,0.));
#501=DIRECTION('',(1.,1.11960983346896E-16,0.));
#502=DIRECTION('',(-1.,-1.11960983346896E-16,0.));
#503=DIRECTION('',(0.,0.,-1.));
#504=DIRECTION('',(-1.,-1.11960983346896E-16,0.));
#505=DIRECTION('',(0.,0.,-1.));
#506=DIRECTION('',(1.,0.,0.));
#507=DIRECTION('',(0.,0.,-1.));
#508=DIRECTION('',(0.,-1.,0.));
#509=DIRECTION('',(0.,0.,-1.));
#510=DIRECTION('',(0.,-1.,0.));
#511=DIRECTION('',(0.,0.,-1.));
#512=DIRECTION('',(-1.,0.,0.));
#513=DIRECTION('',(0.,0.,1.));
#514=DIRECTION('',(1.,0.,0.));
#515=DIRECTION('',(0.,0.,-1.));
#516=DIRECTION('',(0.,0.,1.));
#517=DIRECTION('',(1.,0.,0.));
#518=DIRECTION('',(1.,0.,0.));
#519=DIRECTION('',(0.,0.,-1.));
#520=DIRECTION('',(0.,-1.,0.));
#521=DIRECTION('',(0.,0.,-1.));
#522=DIRECTION('',(0.,-1.,0.));
#523=DIRECTION('',(0.,-1.,0.));
#524=DIRECTION('',(0.,0.,-1.));
#525=DIRECTION('',(-1.,0.,0.));
#526=DIRECTION('',(0.,0.,-1.));
#527=DIRECTION('',(-1.,0.,0.));
#528=DIRECTION('',(-1.,0.,0.));
#529=DIRECTION('',(0.,0.,1.));
#530=DIRECTION('',(0.,1.,0.));
#531=DIRECTION('',(0.,0.,-1.));
#532=DIRECTION('',(0.,1.,0.));
#533=DIRECTION('',(0.,-1.,0.));
#534=DIRECTION('',(0.,0.,-1.));
#535=DIRECTION('',(-1.,0.,0.));
#536=DIRECTION('',(0.,0.,-1.));
#537=DIRECTION('',(-1.,0.,0.));
#538=DIRECTION('',(-1.,0.,0.));
#539=DIRECTION('',(0.,0.,1.));
#540=DIRECTION('',(0.,1.,0.));
#541=DIRECTION('',(0.,0.,-1.));
#542=DIRECTION('',(0.,1.,0.));
#543=DIRECTION('',(0.,0.,-1.));
#544=DIRECTION('',(-1.,0.,0.));
#545=DIRECTION('',(0.,0.,1.));
#546=DIRECTION('',(1.,0.,0.));
#547=DIRECTION('',(0.,0.,-1.));
#548=DIRECTION('',(0.,0.,1.));
#549=DIRECTION('',(1.,0.,0.));
#550=DIRECTION('',(-1.,0.,0.));
#551=DIRECTION('',(0.,0.,1.));
#552=DIRECTION('',(0.,1.,0.));
#553=DIRECTION('',(0.,0.,-1.));
#554=DIRECTION('',(0.,1.,0.));
#555=DIRECTION('',(2.23921966693792E-16,-1.,0.));
#556=DIRECTION('',(1.,2.23921966693792E-16,0.));
#557=DIRECTION('',(-1.,-2.23921966693792E-16,0.));
#558=DIRECTION('',(0.,0.,-1.));
#559=DIRECTION('',(-1.,-2.23921966693792E-16,0.));
#560=DIRECTION('',(-1.,0.,0.));
#561=DIRECTION('',(0.,0.,1.));
#562=DIRECTION('',(0.,1.,0.));
#563=DIRECTION('',(0.,0.,-1.));
#564=DIRECTION('',(0.,1.,0.));
#565=DIRECTION('',(0.,0.,-1.));
#566=DIRECTION('',(-1.,0.,0.));
#567=DIRECTION('',(0.,0.,1.));
#568=DIRECTION('',(1.,0.,0.));
#569=DIRECTION('',(0.,0.,-1.));
#570=DIRECTION('',(0.,0.,1.));
#571=DIRECTION('',(1.,0.,0.));
#572=DIRECTION('',(-1.,0.,0.));
#573=DIRECTION('',(0.,0.,1.));
#574=DIRECTION('',(0.,1.,0.));
#575=DIRECTION('',(0.,0.,-1.));
#576=DIRECTION('',(0.,1.,0.));
#577=DIRECTION('',(0.,-1.,0.));
#578=DIRECTION('',(0.,0.,-1.));
#579=DIRECTION('',(-1.,0.,0.));
#580=DIRECTION('',(0.,0.,-1.));
#581=DIRECTION('',(-1.,0.,0.));
#582=DIRECTION('',(-1.,0.,0.));
#583=DIRECTION('',(0.,0.,1.));
#584=DIRECTION('',(0.,1.,0.));
#585=DIRECTION('',(0.,0.,-1.));
#586=DIRECTION('',(0.,1.,0.));
#587=DIRECTION('',(5.69134998680055E-16,-1.,0.));
#588=DIRECTION('',(1.,5.69134998680055E-16,0.));
#589=DIRECTION('',(-1.,-5.69134998680055E-16,0.));
#590=DIRECTION('',(0.,0.,-1.));
#591=DIRECTION('',(-1.,-5.69134998680055E-16,0.));
#592=DIRECTION('',(1.,0.,0.));
#593=DIRECTION('',(0.,0.,-1.));
#594=DIRECTION('',(0.,-1.,0.));
#595=DIRECTION('',(0.,0.,-1.));
#596=DIRECTION('',(0.,-1.,0.));
#597=DIRECTION('',(0.,0.,-1.));
#598=DIRECTION('',(-1.,0.,0.));
#599=DIRECTION('',(0.,0.,1.));
#600=DIRECTION('',(1.,0.,0.));
#601=DIRECTION('',(0.,0.,-1.));
#602=DIRECTION('',(0.,0.,1.));
#603=DIRECTION('',(1.,0.,0.));
#604=DIRECTION('',(1.,0.,0.));
#605=DIRECTION('',(0.,0.,-1.));
#606=DIRECTION('',(0.,-1.,0.));
#607=DIRECTION('',(0.,-1.,0.));
#608=DIRECTION('',(0.,0.,-1.));
#609=DIRECTION('',(-1.,0.,0.));
#610=DIRECTION('',(0.,0.,1.));
#611=DIRECTION('',(1.,0.,0.));
#612=DIRECTION('',(0.,0.,1.));
#613=DIRECTION('',(1.,0.,0.));
#614=DIRECTION('',(0.,0.,1.));
#615=DIRECTION('',(1.,0.,0.));
#616=DIRECTION('',(0.,0.,1.));
#617=DIRECTION('',(1.,0.,0.));
#618=CARTESIAN_POINT('',(0.,0.,0.));
#619=CARTESIAN_POINT('',(1.7347234759768E-18,-0.015875,0.00225));
#620=CARTESIAN_POINT('',(1.7347234759768E-18,-0.015875,0.));
#621=CARTESIAN_POINT('',(0.015494,-0.015875,0.));
#622=CARTESIAN_POINT('',(-0.015494,-0.015875,0.));
#623=CARTESIAN_POINT('',(0.015494,-0.015875,0.00225));
#624=CARTESIAN_POINT('',(0.015494,-0.015875,0.00225));
#625=CARTESIAN_POINT('',(1.7347234759768E-18,-0.015875,0.00225));
#626=CARTESIAN_POINT('',(-0.015494,-0.015875,0.00225));
#627=CARTESIAN_POINT('',(-0.015494,-0.015875,0.00225));
#628=CARTESIAN_POINT('',(0.015494,-0.0120015,0.00225));
#629=CARTESIAN_POINT('',(0.015494,-0.0120015,0.));
#630=CARTESIAN_POINT('',(0.015494,-0.008128,0.));
#631=CARTESIAN_POINT('',(0.015494,-0.008128,0.00225));
#632=CARTESIAN_POINT('',(0.015494,-0.008128,0.00225));
#633=CARTESIAN_POINT('',(0.015494,-0.0120015,0.00225));
#634=CARTESIAN_POINT('',(0.020574,-0.008128,0.00225));
#635=CARTESIAN_POINT('',(0.020574,-0.008128,0.));
#636=CARTESIAN_POINT('',(0.025654,-0.008128,0.));
#637=CARTESIAN_POINT('',(0.025654,-0.008128,0.00225));
#638=CARTESIAN_POINT('',(0.025654,-0.008128,0.00225));
#639=CARTESIAN_POINT('',(0.020574,-0.008128,0.00225));
#640=CARTESIAN_POINT('',(0.025654,-0.0120015,0.00225));
#641=CARTESIAN_POINT('',(0.025654,-0.0120015,0.));
#642=CARTESIAN_POINT('',(0.025654,-0.015875,0.));
#643=CARTESIAN_POINT('',(0.025654,-0.015875,0.00225));
#644=CARTESIAN_POINT('',(0.025654,-0.015875,0.00225));
#645=CARTESIAN_POINT('',(0.025654,-0.0120015,0.00225));
#646=CARTESIAN_POINT('',(0.028702,-0.015875,0.00225));
#647=CARTESIAN_POINT('',(0.028702,-0.015875,0.));
#648=CARTESIAN_POINT('',(0.03175,-0.015875,0.));
#649=CARTESIAN_POINT('',(0.03175,-0.015875,0.00225));
#650=CARTESIAN_POINT('',(0.03175,-0.015875,0.00225));
#651=CARTESIAN_POINT('',(0.028702,-0.015875,0.00225));
#652=CARTESIAN_POINT('',(0.03175,6.93889390390723E-18,0.00225));
#653=CARTESIAN_POINT('',(0.03175,6.93889390390723E-18,0.));
#654=CARTESIAN_POINT('',(0.03175,0.015875,0.));
#655=CARTESIAN_POINT('',(0.03175,0.015875,0.00225));
#656=CARTESIAN_POINT('',(0.03175,0.015875,0.00225));
#657=CARTESIAN_POINT('',(0.03175,6.93889390390723E-18,0.00225));
#658=CARTESIAN_POINT('',(0.028702,0.015875,0.00225));
#659=CARTESIAN_POINT('',(0.028702,0.015875,0.));
#660=CARTESIAN_POINT('',(0.025654,0.015875,0.));
#661=CARTESIAN_POINT('',(0.025654,0.015875,0.00225));
#662=CARTESIAN_POINT('',(0.025654,0.015875,0.00225));
#663=CARTESIAN_POINT('',(0.028702,0.015875,0.00225));
#664=CARTESIAN_POINT('',(0.025654,0.0120015,0.00225));
#665=CARTESIAN_POINT('',(0.025654,0.0120015,0.));
#666=CARTESIAN_POINT('',(0.025654,0.008128,0.));
#667=CARTESIAN_POINT('',(0.025654,0.008128,0.00225));
#668=CARTESIAN_POINT('',(0.025654,0.008128,0.00225));
#669=CARTESIAN_POINT('',(0.025654,0.0120015,0.00225));
#670=CARTESIAN_POINT('',(0.020574,0.008128,0.00225));
#671=CARTESIAN_POINT('',(0.020574,0.008128,0.));
#672=CARTESIAN_POINT('',(0.015494,0.008128,0.));
#673=CARTESIAN_POINT('',(0.015494,0.008128,0.00225));
#674=CARTESIAN_POINT('',(0.015494,0.008128,0.00225));
#675=CARTESIAN_POINT('',(0.020574,0.008128,0.00225));
#676=CARTESIAN_POINT('',(0.015494,0.0120015,0.00225));
#677=CARTESIAN_POINT('',(0.015494,0.0120015,0.));
#678=CARTESIAN_POINT('',(0.015494,0.015875,0.));
#679=CARTESIAN_POINT('',(0.015494,0.015875,0.00225));
#680=CARTESIAN_POINT('',(0.015494,0.015875,0.00225));
#681=CARTESIAN_POINT('',(0.015494,0.0120015,0.00225));
#682=CARTESIAN_POINT('',(0.,0.015875,0.00225));
#683=CARTESIAN_POINT('',(0.,0.015875,0.));
#684=CARTESIAN_POINT('',(-0.015494,0.015875,0.));
#685=CARTESIAN_POINT('',(-0.015494,0.015875,0.00225));
#686=CARTESIAN_POINT('',(-0.015494,0.015875,0.00225));
#687=CARTESIAN_POINT('',(0.,0.015875,0.00225));
#688=CARTESIAN_POINT('',(-0.015494,0.0120015,0.00225));
#689=CARTESIAN_POINT('',(-0.015494,0.0120015,0.));
#690=CARTESIAN_POINT('',(-0.015494,0.008128,0.));
#691=CARTESIAN_POINT('',(-0.015494,0.008128,0.00225));
#692=CARTESIAN_POINT('',(-0.015494,0.008128,0.00225));
#693=CARTESIAN_POINT('',(-0.015494,0.0120015,0.00225));
#694=CARTESIAN_POINT('',(-0.020574,0.008128,0.00225));
#695=CARTESIAN_POINT('',(-0.020574,0.008128,0.));
#696=CARTESIAN_POINT('',(-0.025654,0.008128,0.));
#697=CARTESIAN_POINT('',(-0.025654,0.008128,0.00225));
#698=CARTESIAN_POINT('',(-0.025654,0.008128,0.00225));
#699=CARTESIAN_POINT('',(-0.020574,0.008128,0.00225));
#700=CARTESIAN_POINT('',(-0.025654,0.0120015,0.00225));
#701=CARTESIAN_POINT('',(-0.025654,0.0120015,0.));
#702=CARTESIAN_POINT('',(-0.025654,0.015875,0.));
#703=CARTESIAN_POINT('',(-0.025654,0.015875,0.00225));
#704=CARTESIAN_POINT('',(-0.025654,0.015875,0.00225));
#705=CARTESIAN_POINT('',(-0.025654,0.0120015,0.00225));
#706=CARTESIAN_POINT('',(-0.028702,0.015875,0.00225));
#707=CARTESIAN_POINT('',(-0.028702,0.015875,0.));
#708=CARTESIAN_POINT('',(-0.03175,0.015875,0.));
#709=CARTESIAN_POINT('',(-0.03175,0.015875,0.00225));
#710=CARTESIAN_POINT('',(-0.03175,0.015875,0.00225));
#711=CARTESIAN_POINT('',(-0.028702,0.015875,0.00225));
#712=CARTESIAN_POINT('',(-0.03175,-6.93889390390723E-18,0.00225));
#713=CARTESIAN_POINT('',(-0.03175,-6.93889390390723E-18,0.));
#714=CARTESIAN_POINT('',(-0.03175,-0.015875,0.));
#715=CARTESIAN_POINT('',(-0.03175,-0.015875,0.00225));
#716=CARTESIAN_POINT('',(-0.03175,-0.015875,0.00225));
#717=CARTESIAN_POINT('',(-0.03175,-6.93889390390723E-18,0.00225));
#718=CARTESIAN_POINT('',(-0.028702,-0.015875,0.00225));
#719=CARTESIAN_POINT('',(-0.028702,-0.015875,0.));
#720=CARTESIAN_POINT('',(-0.025654,-0.015875,0.));
#721=CARTESIAN_POINT('',(-0.025654,-0.015875,0.00225));
#722=CARTESIAN_POINT('',(-0.025654,-0.015875,0.00225));
#723=CARTESIAN_POINT('',(-0.028702,-0.015875,0.00225));
#724=CARTESIAN_POINT('',(-0.025654,-0.0120015,0.00225));
#725=CARTESIAN_POINT('',(-0.025654,-0.0120015,0.));
#726=CARTESIAN_POINT('',(-0.025654,-0.008128,0.));
#727=CARTESIAN_POINT('',(-0.025654,-0.008128,0.00225));
#728=CARTESIAN_POINT('',(-0.025654,-0.008128,0.00225));
#729=CARTESIAN_POINT('',(-0.025654,-0.0120015,0.00225));
#730=CARTESIAN_POINT('',(-0.020574,-0.008128,0.00225));
#731=CARTESIAN_POINT('',(-0.020574,-0.008128,0.));
#732=CARTESIAN_POINT('',(-0.015494,-0.008128,0.));
#733=CARTESIAN_POINT('',(-0.015494,-0.008128,0.00225));
#734=CARTESIAN_POINT('',(-0.015494,-0.008128,0.00225));
#735=CARTESIAN_POINT('',(-0.020574,-0.008128,0.00225));
#736=CARTESIAN_POINT('',(-0.015494,-0.0120015,0.00225));
#737=CARTESIAN_POINT('',(-0.015494,-0.0120015,0.));
#738=CARTESIAN_POINT('',(-0.015494,-0.0120015,0.00225));
#739=CARTESIAN_POINT('',(0.,3.18836794158014E-19,0.00225));
#740=CARTESIAN_POINT('',(0.,3.18836794158014E-19,0.00225));
#741=CARTESIAN_POINT('',(0.005207,3.18836794158014E-19,0.00225));
#742=CARTESIAN_POINT('',(0.,3.18836794158014E-19,0.));
#743=CARTESIAN_POINT('',(0.005207,3.18836794158014E-19,0.));
#744=CARTESIAN_POINT('',(0.,0.,0.00225));
#745=CARTESIAN_POINT('',(0.,0.,0.));
#746=MECHANICAL_DESIGN_GEOMETRIC_PRESENTATION_REPRESENTATION('',(#453),
#747);
#747=(
GEOMETRIC_REPRESENTATION_CONTEXT(3)
GLOBAL_UNCERTAINTY_ASSIGNED_CONTEXT((#748))
GLOBAL_UNIT_ASSIGNED_CONTEXT((#751,#750,#749))
REPRESENTATION_CONTEXT('DSCP014-M225','TOP_LEVEL_ASSEMBLY_PART')
);
#748=UNCERTAINTY_MEASURE_WITH_UNIT(LENGTH_MEASURE(5.E-6),#751,
'DISTANCE_ACCURACY_VALUE','Maximum Tolerance applied to model');
#749=(
NAMED_UNIT(*)
SI_UNIT($,.STERADIAN.)
SOLID_ANGLE_UNIT()
);
#750=(
NAMED_UNIT(*)
PLANE_ANGLE_UNIT()
SI_UNIT($,.RADIAN.)
);
#751=(
LENGTH_UNIT()
NAMED_UNIT(*)
SI_UNIT($,.METRE.)
);
#752=PRODUCT_DEFINITION_SHAPE('','',#753);
#753=PRODUCT_DEFINITION('','',#755,#754);
#754=PRODUCT_DEFINITION_CONTEXT('',#761,'design');
#755=PRODUCT_DEFINITION_FORMATION_WITH_SPECIFIED_SOURCE('','',#757,
 .NOT_KNOWN.);
#756=PRODUCT_RELATED_PRODUCT_CATEGORY('','',(#757));
#757=PRODUCT('DSCP014-M225','DSCP014-M225','DSCP014-M225',(#759));
#758=PRODUCT_CATEGORY('','');
#759=PRODUCT_CONTEXT('',#761,'mechanical');
#760=APPLICATION_PROTOCOL_DEFINITION('international standard',
'ap242_managed_model_based_3d_engineering',2011,#761);
#761=APPLICATION_CONTEXT('managed model based 3d engineering');
ENDSEC;
END-ISO-10303-21;
