ISO-10303-21;
HEADER;
/* Generated by software containing ST-Developer
 * from STEP Tools, Inc. (www.steptools.com) 
 */
/* OPTION: using custom renumber hook */

FILE_DESCRIPTION(
/* description */ ('STEP AP242',
'CAx-IF Rec.Pracs.---Representation and Presentation of Product Manufa
cturing Information (PMI)---4.0---2014-10-13',
'CAx-IF Rec.Pracs.---3D Tessellated Geometry---0.4---2014-09-14','2;1'),

/* implementation_level */ '2;1');

FILE_NAME(
/* name */ '6284e2e35924ec17f8bd297b',
/* time_stamp */ '2022-05-18T12:13:23+00:00',
/* author */ (''),
/* organization */ (''),
/* preprocessor_version */ 'ST-DEVELOPER v18.102',
/* originating_system */ '  ',
/* authorisation */ '  ');

FILE_SCHEMA (('AP242_MANAGED_MODEL_BASED_3D_ENGINEERING_MIM_LF { 1 0 10303 442 1 1 4 }'));
ENDSEC;

DATA;
#10=SHAPE_REPRESENTATION_RELATIONSHIP('','',#199,#11);
#11=ADVANCED_BREP_SHAPE_REPRESENTATION('',(#197),#317);
#12=CIRCLE('',#205,0.0045);
#13=CIRCLE('',#206,0.0045);
#14=CIRCLE('',#209,0.0045);
#15=CIRCLE('',#210,0.0045);
#16=CYLINDRICAL_SURFACE('',#204,0.0045);
#17=CYLINDRICAL_SURFACE('',#208,0.0045);
#18=ORIENTED_EDGE('',*,*,#66,.F.);
#19=ORIENTED_EDGE('',*,*,#67,.F.);
#20=ORIENTED_EDGE('',*,*,#68,.T.);
#21=ORIENTED_EDGE('',*,*,#69,.T.);
#22=ORIENTED_EDGE('',*,*,#70,.T.);
#23=ORIENTED_EDGE('',*,*,#71,.F.);
#24=ORIENTED_EDGE('',*,*,#72,.F.);
#25=ORIENTED_EDGE('',*,*,#67,.T.);
#26=ORIENTED_EDGE('',*,*,#73,.T.);
#27=ORIENTED_EDGE('',*,*,#74,.F.);
#28=ORIENTED_EDGE('',*,*,#75,.F.);
#29=ORIENTED_EDGE('',*,*,#71,.T.);
#30=ORIENTED_EDGE('',*,*,#76,.F.);
#31=ORIENTED_EDGE('',*,*,#77,.F.);
#32=ORIENTED_EDGE('',*,*,#78,.T.);
#33=ORIENTED_EDGE('',*,*,#79,.T.);
#34=ORIENTED_EDGE('',*,*,#80,.T.);
#35=ORIENTED_EDGE('',*,*,#81,.F.);
#36=ORIENTED_EDGE('',*,*,#82,.F.);
#37=ORIENTED_EDGE('',*,*,#77,.T.);
#38=ORIENTED_EDGE('',*,*,#83,.F.);
#39=ORIENTED_EDGE('',*,*,#84,.F.);
#40=ORIENTED_EDGE('',*,*,#85,.T.);
#41=ORIENTED_EDGE('',*,*,#81,.T.);
#42=ORIENTED_EDGE('',*,*,#86,.F.);
#43=ORIENTED_EDGE('',*,*,#79,.F.);
#44=ORIENTED_EDGE('',*,*,#87,.T.);
#45=ORIENTED_EDGE('',*,*,#84,.T.);
#46=ORIENTED_EDGE('',*,*,#88,.F.);
#47=ORIENTED_EDGE('',*,*,#69,.F.);
#48=ORIENTED_EDGE('',*,*,#89,.T.);
#49=ORIENTED_EDGE('',*,*,#74,.T.);
#50=ORIENTED_EDGE('',*,*,#78,.F.);
#51=ORIENTED_EDGE('',*,*,#82,.T.);
#52=ORIENTED_EDGE('',*,*,#85,.F.);
#53=ORIENTED_EDGE('',*,*,#87,.F.);
#54=ORIENTED_EDGE('',*,*,#68,.F.);
#55=ORIENTED_EDGE('',*,*,#72,.T.);
#56=ORIENTED_EDGE('',*,*,#75,.T.);
#57=ORIENTED_EDGE('',*,*,#89,.F.);
#58=ORIENTED_EDGE('',*,*,#76,.T.);
#59=ORIENTED_EDGE('',*,*,#86,.T.);
#60=ORIENTED_EDGE('',*,*,#83,.T.);
#61=ORIENTED_EDGE('',*,*,#80,.F.);
#62=ORIENTED_EDGE('',*,*,#66,.T.);
#63=ORIENTED_EDGE('',*,*,#88,.T.);
#64=ORIENTED_EDGE('',*,*,#73,.F.);
#65=ORIENTED_EDGE('',*,*,#70,.F.);
#66=EDGE_CURVE('',#90,#91,#106,.T.);
#67=EDGE_CURVE('',#92,#90,#107,.T.);
#68=EDGE_CURVE('',#92,#93,#108,.T.);
#69=EDGE_CURVE('',#93,#91,#109,.T.);
#70=EDGE_CURVE('',#90,#94,#110,.T.);
#71=EDGE_CURVE('',#95,#94,#111,.T.);
#72=EDGE_CURVE('',#92,#95,#112,.T.);
#73=EDGE_CURVE('',#94,#96,#113,.T.);
#74=EDGE_CURVE('',#97,#96,#114,.T.);
#75=EDGE_CURVE('',#95,#97,#115,.T.);
#76=EDGE_CURVE('',#98,#99,#12,.T.);
#77=EDGE_CURVE('',#100,#98,#116,.T.);
#78=EDGE_CURVE('',#100,#101,#13,.T.);
#79=EDGE_CURVE('',#101,#99,#117,.T.);
#80=EDGE_CURVE('',#98,#102,#118,.T.);
#81=EDGE_CURVE('',#103,#102,#119,.T.);
#82=EDGE_CURVE('',#100,#103,#120,.T.);
#83=EDGE_CURVE('',#104,#102,#14,.T.);
#84=EDGE_CURVE('',#105,#104,#121,.T.);
#85=EDGE_CURVE('',#105,#103,#15,.T.);
#86=EDGE_CURVE('',#99,#104,#122,.T.);
#87=EDGE_CURVE('',#101,#105,#123,.T.);
#88=EDGE_CURVE('',#91,#96,#124,.T.);
#89=EDGE_CURVE('',#93,#97,#125,.T.);
#90=VERTEX_POINT('',#268);
#91=VERTEX_POINT('',#269);
#92=VERTEX_POINT('',#271);
#93=VERTEX_POINT('',#273);
#94=VERTEX_POINT('',#277);
#95=VERTEX_POINT('',#279);
#96=VERTEX_POINT('',#283);
#97=VERTEX_POINT('',#285);
#98=VERTEX_POINT('',#289);
#99=VERTEX_POINT('',#290);
#100=VERTEX_POINT('',#292);
#101=VERTEX_POINT('',#294);
#102=VERTEX_POINT('',#298);
#103=VERTEX_POINT('',#300);
#104=VERTEX_POINT('',#304);
#105=VERTEX_POINT('',#306);
#106=LINE('',#267,#126);
#107=LINE('',#270,#127);
#108=LINE('',#272,#128);
#109=LINE('',#274,#129);
#110=LINE('',#276,#130);
#111=LINE('',#278,#131);
#112=LINE('',#280,#132);
#113=LINE('',#282,#133);
#114=LINE('',#284,#134);
#115=LINE('',#286,#135);
#116=LINE('',#291,#136);
#117=LINE('',#295,#137);
#118=LINE('',#297,#138);
#119=LINE('',#299,#139);
#120=LINE('',#301,#140);
#121=LINE('',#305,#141);
#122=LINE('',#309,#142);
#123=LINE('',#310,#143);
#124=LINE('',#312,#144);
#125=LINE('',#313,#145);
#126=VECTOR('',#219,1.);
#127=VECTOR('',#220,1.);
#128=VECTOR('',#221,1.);
#129=VECTOR('',#222,1.);
#130=VECTOR('',#225,1.);
#131=VECTOR('',#226,1.);
#132=VECTOR('',#227,1.);
#133=VECTOR('',#230,1.);
#134=VECTOR('',#231,1.);
#135=VECTOR('',#232,1.);
#136=VECTOR('',#237,1.);
#137=VECTOR('',#240,1.);
#138=VECTOR('',#243,1.);
#139=VECTOR('',#244,1.);
#140=VECTOR('',#245,1.);
#141=VECTOR('',#250,1.);
#142=VECTOR('',#255,1.);
#143=VECTOR('',#256,1.);
#144=VECTOR('',#259,1.);
#145=VECTOR('',#260,1.);
#146=EDGE_LOOP('',(#18,#19,#20,#21));
#147=EDGE_LOOP('',(#22,#23,#24,#25));
#148=EDGE_LOOP('',(#26,#27,#28,#29));
#149=EDGE_LOOP('',(#30,#31,#32,#33));
#150=EDGE_LOOP('',(#34,#35,#36,#37));
#151=EDGE_LOOP('',(#38,#39,#40,#41));
#152=EDGE_LOOP('',(#42,#43,#44,#45));
#153=EDGE_LOOP('',(#46,#47,#48,#49));
#154=EDGE_LOOP('',(#50,#51,#52,#53));
#155=EDGE_LOOP('',(#54,#55,#56,#57));
#156=EDGE_LOOP('',(#58,#59,#60,#61));
#157=EDGE_LOOP('',(#62,#63,#64,#65));
#158=FACE_BOUND('',#146,.T.);
#159=FACE_BOUND('',#147,.T.);
#160=FACE_BOUND('',#148,.T.);
#161=FACE_BOUND('',#149,.T.);
#162=FACE_BOUND('',#150,.T.);
#163=FACE_BOUND('',#151,.T.);
#164=FACE_BOUND('',#152,.T.);
#165=FACE_BOUND('',#153,.T.);
#166=FACE_BOUND('',#154,.T.);
#167=FACE_BOUND('',#155,.T.);
#168=FACE_BOUND('',#156,.T.);
#169=FACE_BOUND('',#157,.T.);
#170=PLANE('',#201);
#171=PLANE('',#202);
#172=PLANE('',#203);
#173=PLANE('',#207);
#174=PLANE('',#211);
#175=PLANE('',#212);
#176=PLANE('',#213);
#177=PLANE('',#214);
#178=ADVANCED_FACE('',(#158),#170,.T.);
#179=ADVANCED_FACE('',(#159),#171,.F.);
#180=ADVANCED_FACE('',(#160),#172,.F.);
#181=ADVANCED_FACE('',(#161),#16,.F.);
#182=ADVANCED_FACE('',(#162),#173,.F.);
#183=ADVANCED_FACE('',(#163),#17,.F.);
#184=ADVANCED_FACE('',(#164),#174,.T.);
#185=ADVANCED_FACE('',(#165),#175,.T.);
#186=ADVANCED_FACE('',(#166,#167),#176,.T.);
#187=ADVANCED_FACE('',(#168,#169),#177,.F.);
#188=CLOSED_SHELL('',(#178,#179,#180,#181,#182,#183,#184,#185,#186,#187));
#189=STYLED_ITEM('',(#190),#197);
#190=PRESENTATION_STYLE_ASSIGNMENT((#191));
#191=SURFACE_STYLE_USAGE(.BOTH.,#192);
#192=SURFACE_SIDE_STYLE('',(#193));
#193=SURFACE_STYLE_FILL_AREA(#194);
#194=FILL_AREA_STYLE('',(#195));
#195=FILL_AREA_STYLE_COLOUR('',#196);
#196=COLOUR_RGB('',0.498039215686275,0.498039215686275,0.498039215686275);
#197=MANIFOLD_SOLID_BREP('DSCP016-M540',#188);
#198=SHAPE_DEFINITION_REPRESENTATION(#322,#199);
#199=SHAPE_REPRESENTATION('DSCP016-M540',(#200),#317);
#200=AXIS2_PLACEMENT_3D('',#265,#215,#216);
#201=AXIS2_PLACEMENT_3D('',#266,#217,#218);
#202=AXIS2_PLACEMENT_3D('',#275,#223,#224);
#203=AXIS2_PLACEMENT_3D('',#281,#228,#229);
#204=AXIS2_PLACEMENT_3D('',#287,#233,#234);
#205=AXIS2_PLACEMENT_3D('',#288,#235,#236);
#206=AXIS2_PLACEMENT_3D('',#293,#238,#239);
#207=AXIS2_PLACEMENT_3D('',#296,#241,#242);
#208=AXIS2_PLACEMENT_3D('',#302,#246,#247);
#209=AXIS2_PLACEMENT_3D('',#303,#248,#249);
#210=AXIS2_PLACEMENT_3D('',#307,#251,#252);
#211=AXIS2_PLACEMENT_3D('',#308,#253,#254);
#212=AXIS2_PLACEMENT_3D('',#311,#257,#258);
#213=AXIS2_PLACEMENT_3D('',#314,#261,#262);
#214=AXIS2_PLACEMENT_3D('',#315,#263,#264);
#215=DIRECTION('',(0.,0.,1.));
#216=DIRECTION('',(1.,0.,0.));
#217=DIRECTION('',(1.18276600634782E-16,-1.,0.));
#218=DIRECTION('',(1.,1.18276600634782E-16,0.));
#219=DIRECTION('',(-1.,-1.18276600634782E-16,0.));
#220=DIRECTION('',(0.,0.,-1.));
#221=DIRECTION('',(-1.,-1.18276600634782E-16,0.));
#222=DIRECTION('',(0.,0.,-1.));
#223=DIRECTION('',(-1.,0.,0.));
#224=DIRECTION('',(0.,0.,1.));
#225=DIRECTION('',(0.,1.,0.));
#226=DIRECTION('',(0.,0.,-1.));
#227=DIRECTION('',(0.,1.,0.));
#228=DIRECTION('',(1.5770213417971E-16,-1.,0.));
#229=DIRECTION('',(1.,1.5770213417971E-16,0.));
#230=DIRECTION('',(-1.,-1.5770213417971E-16,0.));
#231=DIRECTION('',(0.,0.,-1.));
#232=DIRECTION('',(-1.,-1.5770213417971E-16,0.));
#233=DIRECTION('',(0.,0.,-1.));
#234=DIRECTION('',(-1.,0.,0.));
#235=DIRECTION('',(0.,0.,1.));
#236=DIRECTION('',(1.,0.,0.));
#237=DIRECTION('',(0.,0.,-1.));
#238=DIRECTION('',(0.,0.,1.));
#239=DIRECTION('',(1.,0.,0.));
#240=DIRECTION('',(0.,0.,-1.));
#241=DIRECTION('',(0.,1.,0.));
#242=DIRECTION('',(0.,0.,1.));
#243=DIRECTION('',(1.,0.,0.));
#244=DIRECTION('',(0.,0.,-1.));
#245=DIRECTION('',(1.,0.,0.));
#246=DIRECTION('',(0.,0.,-1.));
#247=DIRECTION('',(-1.,0.,0.));
#248=DIRECTION('',(0.,0.,1.));
#249=DIRECTION('',(1.,0.,0.));
#250=DIRECTION('',(0.,0.,-1.));
#251=DIRECTION('',(0.,0.,1.));
#252=DIRECTION('',(1.,0.,0.));
#253=DIRECTION('',(0.,1.,0.));
#254=DIRECTION('',(0.,0.,1.));
#255=DIRECTION('',(1.,0.,0.));
#256=DIRECTION('',(1.,0.,0.));
#257=DIRECTION('',(-1.,0.,0.));
#258=DIRECTION('',(0.,0.,1.));
#259=DIRECTION('',(0.,1.,0.));
#260=DIRECTION('',(0.,1.,0.));
#261=DIRECTION('',(0.,0.,1.));
#262=DIRECTION('',(1.,0.,0.));
#263=DIRECTION('',(0.,0.,1.));
#264=DIRECTION('',(1.,0.,0.));
#265=CARTESIAN_POINT('',(0.,0.,0.));
#266=CARTESIAN_POINT('',(0.,-0.01,0.0054));
#267=CARTESIAN_POINT('',(0.,-0.01,0.));
#268=CARTESIAN_POINT('',(0.022,-0.01,0.));
#269=CARTESIAN_POINT('',(-0.022,-0.01,0.));
#270=CARTESIAN_POINT('',(0.022,-0.01,0.0054));
#271=CARTESIAN_POINT('',(0.022,-0.01,0.0054));
#272=CARTESIAN_POINT('',(0.,-0.01,0.0054));
#273=CARTESIAN_POINT('',(-0.022,-0.01,0.0054));
#274=CARTESIAN_POINT('',(-0.022,-0.01,0.0054));
#275=CARTESIAN_POINT('',(0.022,3.46944695195361E-18,0.0054));
#276=CARTESIAN_POINT('',(0.022,3.46944695195361E-18,0.));
#277=CARTESIAN_POINT('',(0.022,0.01,0.));
#278=CARTESIAN_POINT('',(0.022,0.01,0.0054));
#279=CARTESIAN_POINT('',(0.022,0.01,0.0054));
#280=CARTESIAN_POINT('',(0.022,3.46944695195361E-18,0.0054));
#281=CARTESIAN_POINT('',(0.,0.01,0.0054));
#282=CARTESIAN_POINT('',(0.,0.01,0.));
#283=CARTESIAN_POINT('',(-0.022,0.01,0.));
#284=CARTESIAN_POINT('',(-0.022,0.01,0.0054));
#285=CARTESIAN_POINT('',(-0.022,0.01,0.0054));
#286=CARTESIAN_POINT('',(0.,0.01,0.0054));
#287=CARTESIAN_POINT('',(-0.015,0.,0.0054));
#288=CARTESIAN_POINT('',(-0.015,0.,0.));
#289=CARTESIAN_POINT('',(-0.015,0.0045,0.));
#290=CARTESIAN_POINT('',(-0.015,-0.0045,0.));
#291=CARTESIAN_POINT('',(-0.015,0.0045,0.0054));
#292=CARTESIAN_POINT('',(-0.015,0.0045,0.0054));
#293=CARTESIAN_POINT('',(-0.015,0.,0.0054));
#294=CARTESIAN_POINT('',(-0.015,-0.0045,0.0054));
#295=CARTESIAN_POINT('',(-0.015,-0.0045,0.0054));
#296=CARTESIAN_POINT('',(0.,0.0045,0.0054));
#297=CARTESIAN_POINT('',(0.,0.0045,0.));
#298=CARTESIAN_POINT('',(0.015,0.0045,0.));
#299=CARTESIAN_POINT('',(0.015,0.0045,0.0054));
#300=CARTESIAN_POINT('',(0.015,0.0045,0.0054));
#301=CARTESIAN_POINT('',(0.,0.0045,0.0054));
#302=CARTESIAN_POINT('',(0.015,0.,0.0054));
#303=CARTESIAN_POINT('',(0.015,0.,0.));
#304=CARTESIAN_POINT('',(0.015,-0.0045,0.));
#305=CARTESIAN_POINT('',(0.015,-0.0045,0.0054));
#306=CARTESIAN_POINT('',(0.015,-0.0045,0.0054));
#307=CARTESIAN_POINT('',(0.015,0.,0.0054));
#308=CARTESIAN_POINT('',(1.7347234759768E-18,-0.0045,0.0054));
#309=CARTESIAN_POINT('',(1.7347234759768E-18,-0.0045,0.));
#310=CARTESIAN_POINT('',(1.7347234759768E-18,-0.0045,0.0054));
#311=CARTESIAN_POINT('',(-0.022,-3.46944695195361E-18,0.0054));
#312=CARTESIAN_POINT('',(-0.022,-3.46944695195361E-18,0.));
#313=CARTESIAN_POINT('',(-0.022,-3.46944695195361E-18,0.0054));
#314=CARTESIAN_POINT('',(0.,0.,0.0054));
#315=CARTESIAN_POINT('',(0.,0.,0.));
#316=MECHANICAL_DESIGN_GEOMETRIC_PRESENTATION_REPRESENTATION('',(#189),
#317);
#317=(
GEOMETRIC_REPRESENTATION_CONTEXT(3)
GLOBAL_UNCERTAINTY_ASSIGNED_CONTEXT((#318))
GLOBAL_UNIT_ASSIGNED_CONTEXT((#321,#320,#319))
REPRESENTATION_CONTEXT('DSCP016-M540','TOP_LEVEL_ASSEMBLY_PART')
);
#318=UNCERTAINTY_MEASURE_WITH_UNIT(LENGTH_MEASURE(5.E-6),#321,
'DISTANCE_ACCURACY_VALUE','Maximum Tolerance applied to model');
#319=(
NAMED_UNIT(*)
SI_UNIT($,.STERADIAN.)
SOLID_ANGLE_UNIT()
);
#320=(
NAMED_UNIT(*)
PLANE_ANGLE_UNIT()
SI_UNIT($,.RADIAN.)
);
#321=(
LENGTH_UNIT()
NAMED_UNIT(*)
SI_UNIT($,.METRE.)
);
#322=PRODUCT_DEFINITION_SHAPE('','',#323);
#323=PRODUCT_DEFINITION('','',#325,#324);
#324=PRODUCT_DEFINITION_CONTEXT('',#331,'design');
#325=PRODUCT_DEFINITION_FORMATION_WITH_SPECIFIED_SOURCE('','',#327,
 .NOT_KNOWN.);
#326=PRODUCT_RELATED_PRODUCT_CATEGORY('','',(#327));
#327=PRODUCT('DSCP016-M540','DSCP016-M540','DSCP016-M540',(#329));
#328=PRODUCT_CATEGORY('','');
#329=PRODUCT_CONTEXT('',#331,'mechanical');
#330=APPLICATION_PROTOCOL_DEFINITION('international standard',
'ap242_managed_model_based_3d_engineering',2011,#331);
#331=APPLICATION_CONTEXT('managed model based 3d engineering');
ENDSEC;
END-ISO-10303-21;
