ISO-10303-21;
HEADER;
/* Generated by software containing ST-Developer
 * from STEP Tools, Inc. (www.steptools.com) 
 */
/* OPTION: using custom renumber hook */

FILE_DESCRIPTION(
/* description */ ('STEP AP242',
'CAx-IF Rec.Pracs.---Representation and Presentation of Product Manufa
cturing Information (PMI)---4.0---2014-10-13',
'CAx-IF Rec.Pracs.---3D Tessellated Geometry---0.4---2014-09-14','2;1'),

/* implementation_level */ '2;1');

FILE_NAME(
/* name */ '62a7d82c36debc5150b33649',
/* time_stamp */ '2022-06-14T00:37:01+00:00',
/* author */ (''),
/* organization */ (''),
/* preprocessor_version */ 'ST-DEVELOPER v18.102',
/* originating_system */ '  ',
/* authorisation */ '  ');

FILE_SCHEMA (('AP242_MANAGED_MODEL_BASED_3D_ENGINEERING_MIM_LF { 1 0 10303 442 1 1 4 }'));
ENDSEC;

DATA;
#10=SHAPE_REPRESENTATION_RELATIONSHIP('','',#283,#11);
#11=ADVANCED_BREP_SHAPE_REPRESENTATION('',(#281),#457);
#12=PLANE('',#288);
#13=PLANE('',#292);
#14=PLANE('',#296);
#15=PLANE('',#297);
#16=PLANE('',#298);
#17=PLANE('',#299);
#18=PLANE('',#303);
#19=PLANE('',#304);
#20=PLANE('',#305);
#21=PLANE('',#306);
#22=LINE('',#386,#50);
#23=LINE('',#390,#51);
#24=LINE('',#392,#52);
#25=LINE('',#394,#53);
#26=LINE('',#396,#54);
#27=LINE('',#400,#55);
#28=LINE('',#404,#56);
#29=LINE('',#407,#57);
#30=LINE('',#409,#58);
#31=LINE('',#411,#59);
#32=LINE('',#415,#60);
#33=LINE('',#419,#61);
#34=LINE('',#421,#62);
#35=LINE('',#423,#63);
#36=LINE('',#425,#64);
#37=LINE('',#428,#65);
#38=LINE('',#430,#66);
#39=LINE('',#432,#67);
#40=LINE('',#434,#68);
#41=LINE('',#436,#69);
#42=LINE('',#438,#70);
#43=LINE('',#440,#71);
#44=LINE('',#442,#72);
#45=LINE('',#444,#73);
#46=LINE('',#449,#74);
#47=LINE('',#450,#75);
#48=LINE('',#452,#76);
#49=LINE('',#453,#77);
#50=VECTOR('',#313,1.);
#51=VECTOR('',#316,1.);
#52=VECTOR('',#319,1.);
#53=VECTOR('',#320,1.);
#54=VECTOR('',#321,1.);
#55=VECTOR('',#326,1.);
#56=VECTOR('',#331,1.);
#57=VECTOR('',#332,1.);
#58=VECTOR('',#333,1.);
#59=VECTOR('',#334,1.);
#60=VECTOR('',#339,1.);
#61=VECTOR('',#344,1.);
#62=VECTOR('',#345,1.);
#63=VECTOR('',#346,1.);
#64=VECTOR('',#349,1.);
#65=VECTOR('',#350,1.);
#66=VECTOR('',#351,1.);
#67=VECTOR('',#352,1.);
#68=VECTOR('',#355,1.);
#69=VECTOR('',#356,1.);
#70=VECTOR('',#357,1.);
#71=VECTOR('',#360,1.);
#72=VECTOR('',#361,1.);
#73=VECTOR('',#362,1.);
#74=VECTOR('',#371,1.);
#75=VECTOR('',#372,1.);
#76=VECTOR('',#375,1.);
#77=VECTOR('',#376,1.);
#78=ORIENTED_EDGE('',*,*,#150,.F.);
#79=ORIENTED_EDGE('',*,*,#151,.F.);
#80=ORIENTED_EDGE('',*,*,#152,.T.);
#81=ORIENTED_EDGE('',*,*,#153,.T.);
#82=ORIENTED_EDGE('',*,*,#154,.T.);
#83=ORIENTED_EDGE('',*,*,#155,.F.);
#84=ORIENTED_EDGE('',*,*,#156,.F.);
#85=ORIENTED_EDGE('',*,*,#151,.T.);
#86=ORIENTED_EDGE('',*,*,#157,.F.);
#87=ORIENTED_EDGE('',*,*,#158,.F.);
#88=ORIENTED_EDGE('',*,*,#159,.T.);
#89=ORIENTED_EDGE('',*,*,#155,.T.);
#90=ORIENTED_EDGE('',*,*,#160,.T.);
#91=ORIENTED_EDGE('',*,*,#161,.F.);
#92=ORIENTED_EDGE('',*,*,#162,.F.);
#93=ORIENTED_EDGE('',*,*,#163,.T.);
#94=ORIENTED_EDGE('',*,*,#164,.F.);
#95=ORIENTED_EDGE('',*,*,#165,.F.);
#96=ORIENTED_EDGE('',*,*,#166,.T.);
#97=ORIENTED_EDGE('',*,*,#161,.T.);
#98=ORIENTED_EDGE('',*,*,#167,.F.);
#99=ORIENTED_EDGE('',*,*,#168,.F.);
#100=ORIENTED_EDGE('',*,*,#169,.T.);
#101=ORIENTED_EDGE('',*,*,#165,.T.);
#102=ORIENTED_EDGE('',*,*,#170,.T.);
#103=ORIENTED_EDGE('',*,*,#171,.F.);
#104=ORIENTED_EDGE('',*,*,#172,.F.);
#105=ORIENTED_EDGE('',*,*,#173,.T.);
#106=ORIENTED_EDGE('',*,*,#174,.F.);
#107=ORIENTED_EDGE('',*,*,#175,.F.);
#108=ORIENTED_EDGE('',*,*,#176,.T.);
#109=ORIENTED_EDGE('',*,*,#171,.T.);
#110=ORIENTED_EDGE('',*,*,#177,.F.);
#111=ORIENTED_EDGE('',*,*,#178,.F.);
#112=ORIENTED_EDGE('',*,*,#179,.T.);
#113=ORIENTED_EDGE('',*,*,#175,.T.);
#114=ORIENTED_EDGE('',*,*,#180,.F.);
#115=ORIENTED_EDGE('',*,*,#163,.F.);
#116=ORIENTED_EDGE('',*,*,#181,.T.);
#117=ORIENTED_EDGE('',*,*,#168,.T.);
#118=ORIENTED_EDGE('',*,*,#182,.T.);
#119=ORIENTED_EDGE('',*,*,#173,.F.);
#120=ORIENTED_EDGE('',*,*,#183,.F.);
#121=ORIENTED_EDGE('',*,*,#178,.T.);
#122=ORIENTED_EDGE('',*,*,#184,.F.);
#123=ORIENTED_EDGE('',*,*,#153,.F.);
#124=ORIENTED_EDGE('',*,*,#185,.T.);
#125=ORIENTED_EDGE('',*,*,#158,.T.);
#126=ORIENTED_EDGE('',*,*,#172,.T.);
#127=ORIENTED_EDGE('',*,*,#176,.F.);
#128=ORIENTED_EDGE('',*,*,#179,.F.);
#129=ORIENTED_EDGE('',*,*,#183,.T.);
#130=ORIENTED_EDGE('',*,*,#162,.T.);
#131=ORIENTED_EDGE('',*,*,#166,.F.);
#132=ORIENTED_EDGE('',*,*,#169,.F.);
#133=ORIENTED_EDGE('',*,*,#181,.F.);
#134=ORIENTED_EDGE('',*,*,#152,.F.);
#135=ORIENTED_EDGE('',*,*,#156,.T.);
#136=ORIENTED_EDGE('',*,*,#159,.F.);
#137=ORIENTED_EDGE('',*,*,#185,.F.);
#138=ORIENTED_EDGE('',*,*,#170,.F.);
#139=ORIENTED_EDGE('',*,*,#182,.F.);
#140=ORIENTED_EDGE('',*,*,#177,.T.);
#141=ORIENTED_EDGE('',*,*,#174,.T.);
#142=ORIENTED_EDGE('',*,*,#160,.F.);
#143=ORIENTED_EDGE('',*,*,#180,.T.);
#144=ORIENTED_EDGE('',*,*,#167,.T.);
#145=ORIENTED_EDGE('',*,*,#164,.T.);
#146=ORIENTED_EDGE('',*,*,#150,.T.);
#147=ORIENTED_EDGE('',*,*,#184,.T.);
#148=ORIENTED_EDGE('',*,*,#157,.T.);
#149=ORIENTED_EDGE('',*,*,#154,.F.);
#150=EDGE_CURVE('',#186,#187,#210,.T.);
#151=EDGE_CURVE('',#188,#186,#22,.T.);
#152=EDGE_CURVE('',#188,#189,#211,.T.);
#153=EDGE_CURVE('',#189,#187,#23,.T.);
#154=EDGE_CURVE('',#186,#190,#24,.T.);
#155=EDGE_CURVE('',#191,#190,#25,.T.);
#156=EDGE_CURVE('',#188,#191,#26,.T.);
#157=EDGE_CURVE('',#192,#190,#212,.T.);
#158=EDGE_CURVE('',#193,#192,#27,.T.);
#159=EDGE_CURVE('',#193,#191,#213,.T.);
#160=EDGE_CURVE('',#194,#195,#28,.T.);
#161=EDGE_CURVE('',#196,#195,#29,.T.);
#162=EDGE_CURVE('',#197,#196,#30,.T.);
#163=EDGE_CURVE('',#197,#194,#31,.T.);
#164=EDGE_CURVE('',#198,#195,#214,.T.);
#165=EDGE_CURVE('',#199,#198,#32,.T.);
#166=EDGE_CURVE('',#199,#196,#215,.T.);
#167=EDGE_CURVE('',#200,#198,#33,.T.);
#168=EDGE_CURVE('',#201,#200,#34,.T.);
#169=EDGE_CURVE('',#201,#199,#35,.T.);
#170=EDGE_CURVE('',#202,#203,#36,.T.);
#171=EDGE_CURVE('',#204,#203,#37,.T.);
#172=EDGE_CURVE('',#205,#204,#38,.T.);
#173=EDGE_CURVE('',#205,#202,#39,.T.);
#174=EDGE_CURVE('',#206,#203,#40,.T.);
#175=EDGE_CURVE('',#207,#206,#41,.T.);
#176=EDGE_CURVE('',#207,#204,#42,.T.);
#177=EDGE_CURVE('',#208,#206,#43,.T.);
#178=EDGE_CURVE('',#209,#208,#44,.T.);
#179=EDGE_CURVE('',#209,#207,#45,.T.);
#180=EDGE_CURVE('',#194,#200,#216,.T.);
#181=EDGE_CURVE('',#197,#201,#217,.T.);
#182=EDGE_CURVE('',#208,#202,#46,.T.);
#183=EDGE_CURVE('',#209,#205,#47,.T.);
#184=EDGE_CURVE('',#187,#192,#48,.T.);
#185=EDGE_CURVE('',#189,#193,#49,.T.);
#186=VERTEX_POINT('',#384);
#187=VERTEX_POINT('',#385);
#188=VERTEX_POINT('',#387);
#189=VERTEX_POINT('',#389);
#190=VERTEX_POINT('',#393);
#191=VERTEX_POINT('',#395);
#192=VERTEX_POINT('',#399);
#193=VERTEX_POINT('',#401);
#194=VERTEX_POINT('',#405);
#195=VERTEX_POINT('',#406);
#196=VERTEX_POINT('',#408);
#197=VERTEX_POINT('',#410);
#198=VERTEX_POINT('',#414);
#199=VERTEX_POINT('',#416);
#200=VERTEX_POINT('',#420);
#201=VERTEX_POINT('',#422);
#202=VERTEX_POINT('',#426);
#203=VERTEX_POINT('',#427);
#204=VERTEX_POINT('',#429);
#205=VERTEX_POINT('',#431);
#206=VERTEX_POINT('',#435);
#207=VERTEX_POINT('',#437);
#208=VERTEX_POINT('',#441);
#209=VERTEX_POINT('',#443);
#210=CIRCLE('',#286,0.0045);
#211=CIRCLE('',#287,0.0045);
#212=CIRCLE('',#290,0.0045);
#213=CIRCLE('',#291,0.0045);
#214=CIRCLE('',#294,0.0045);
#215=CIRCLE('',#295,0.0045);
#216=CIRCLE('',#301,0.0045);
#217=CIRCLE('',#302,0.0045);
#218=EDGE_LOOP('',(#78,#79,#80,#81));
#219=EDGE_LOOP('',(#82,#83,#84,#85));
#220=EDGE_LOOP('',(#86,#87,#88,#89));
#221=EDGE_LOOP('',(#90,#91,#92,#93));
#222=EDGE_LOOP('',(#94,#95,#96,#97));
#223=EDGE_LOOP('',(#98,#99,#100,#101));
#224=EDGE_LOOP('',(#102,#103,#104,#105));
#225=EDGE_LOOP('',(#106,#107,#108,#109));
#226=EDGE_LOOP('',(#110,#111,#112,#113));
#227=EDGE_LOOP('',(#114,#115,#116,#117));
#228=EDGE_LOOP('',(#118,#119,#120,#121));
#229=EDGE_LOOP('',(#122,#123,#124,#125));
#230=EDGE_LOOP('',(#126,#127,#128,#129));
#231=EDGE_LOOP('',(#130,#131,#132,#133));
#232=EDGE_LOOP('',(#134,#135,#136,#137));
#233=EDGE_LOOP('',(#138,#139,#140,#141));
#234=EDGE_LOOP('',(#142,#143,#144,#145));
#235=EDGE_LOOP('',(#146,#147,#148,#149));
#236=FACE_BOUND('',#218,.T.);
#237=FACE_BOUND('',#219,.T.);
#238=FACE_BOUND('',#220,.T.);
#239=FACE_BOUND('',#221,.T.);
#240=FACE_BOUND('',#222,.T.);
#241=FACE_BOUND('',#223,.T.);
#242=FACE_BOUND('',#224,.T.);
#243=FACE_BOUND('',#225,.T.);
#244=FACE_BOUND('',#226,.T.);
#245=FACE_BOUND('',#227,.T.);
#246=FACE_BOUND('',#228,.T.);
#247=FACE_BOUND('',#229,.T.);
#248=FACE_BOUND('',#230,.T.);
#249=FACE_BOUND('',#231,.T.);
#250=FACE_BOUND('',#232,.T.);
#251=FACE_BOUND('',#233,.T.);
#252=FACE_BOUND('',#234,.T.);
#253=FACE_BOUND('',#235,.T.);
#254=CYLINDRICAL_SURFACE('',#285,0.0045);
#255=CYLINDRICAL_SURFACE('',#289,0.0045);
#256=CYLINDRICAL_SURFACE('',#293,0.0045);
#257=CYLINDRICAL_SURFACE('',#300,0.0045);
#258=ADVANCED_FACE('',(#236),#254,.F.);
#259=ADVANCED_FACE('',(#237),#12,.F.);
#260=ADVANCED_FACE('',(#238),#255,.F.);
#261=ADVANCED_FACE('',(#239),#13,.F.);
#262=ADVANCED_FACE('',(#240),#256,.F.);
#263=ADVANCED_FACE('',(#241),#14,.T.);
#264=ADVANCED_FACE('',(#242),#15,.F.);
#265=ADVANCED_FACE('',(#243),#16,.T.);
#266=ADVANCED_FACE('',(#244),#17,.T.);
#267=ADVANCED_FACE('',(#245),#257,.F.);
#268=ADVANCED_FACE('',(#246),#18,.F.);
#269=ADVANCED_FACE('',(#247),#19,.T.);
#270=ADVANCED_FACE('',(#248,#249,#250),#20,.T.);
#271=ADVANCED_FACE('',(#251,#252,#253),#21,.F.);
#272=CLOSED_SHELL('',(#258,#259,#260,#261,#262,#263,#264,#265,#266,#267,
#268,#269,#270,#271));
#273=STYLED_ITEM('',(#274),#281);
#274=PRESENTATION_STYLE_ASSIGNMENT((#275));
#275=SURFACE_STYLE_USAGE(.BOTH.,#276);
#276=SURFACE_SIDE_STYLE('',(#277));
#277=SURFACE_STYLE_FILL_AREA(#278);
#278=FILL_AREA_STYLE('',(#279));
#279=FILL_AREA_STYLE_COLOUR('',#280);
#280=COLOUR_RGB('',0.498039215686275,0.498039215686275,0.498039215686275);
#281=MANIFOLD_SOLID_BREP('DSCP017-M340',#272);
#282=SHAPE_DEFINITION_REPRESENTATION(#462,#283);
#283=SHAPE_REPRESENTATION('DSCP017-M340',(#284),#457);
#284=AXIS2_PLACEMENT_3D('',#381,#307,#308);
#285=AXIS2_PLACEMENT_3D('',#382,#309,#310);
#286=AXIS2_PLACEMENT_3D('',#383,#311,#312);
#287=AXIS2_PLACEMENT_3D('',#388,#314,#315);
#288=AXIS2_PLACEMENT_3D('',#391,#317,#318);
#289=AXIS2_PLACEMENT_3D('',#397,#322,#323);
#290=AXIS2_PLACEMENT_3D('',#398,#324,#325);
#291=AXIS2_PLACEMENT_3D('',#402,#327,#328);
#292=AXIS2_PLACEMENT_3D('',#403,#329,#330);
#293=AXIS2_PLACEMENT_3D('',#412,#335,#336);
#294=AXIS2_PLACEMENT_3D('',#413,#337,#338);
#295=AXIS2_PLACEMENT_3D('',#417,#340,#341);
#296=AXIS2_PLACEMENT_3D('',#418,#342,#343);
#297=AXIS2_PLACEMENT_3D('',#424,#347,#348);
#298=AXIS2_PLACEMENT_3D('',#433,#353,#354);
#299=AXIS2_PLACEMENT_3D('',#439,#358,#359);
#300=AXIS2_PLACEMENT_3D('',#445,#363,#364);
#301=AXIS2_PLACEMENT_3D('',#446,#365,#366);
#302=AXIS2_PLACEMENT_3D('',#447,#367,#368);
#303=AXIS2_PLACEMENT_3D('',#448,#369,#370);
#304=AXIS2_PLACEMENT_3D('',#451,#373,#374);
#305=AXIS2_PLACEMENT_3D('',#454,#377,#378);
#306=AXIS2_PLACEMENT_3D('',#455,#379,#380);
#307=DIRECTION('',(0.,0.,1.));
#308=DIRECTION('',(1.,0.,0.));
#309=DIRECTION('',(0.,0.,-1.));
#310=DIRECTION('',(-1.,0.,0.));
#311=DIRECTION('',(0.,0.,1.));
#312=DIRECTION('',(1.,0.,0.));
#313=DIRECTION('',(0.,0.,-1.));
#314=DIRECTION('',(0.,0.,1.));
#315=DIRECTION('',(1.,0.,0.));
#316=DIRECTION('',(0.,0.,-1.));
#317=DIRECTION('',(3.46944695195362E-16,1.,0.));
#318=DIRECTION('',(-1.,3.46944695195362E-16,0.));
#319=DIRECTION('',(1.,-3.46944695195362E-16,0.));
#320=DIRECTION('',(0.,0.,-1.));
#321=DIRECTION('',(1.,-3.46944695195362E-16,0.));
#322=DIRECTION('',(0.,0.,-1.));
#323=DIRECTION('',(-1.,0.,0.));
#324=DIRECTION('',(0.,0.,1.));
#325=DIRECTION('',(1.,0.,0.));
#326=DIRECTION('',(0.,0.,-1.));
#327=DIRECTION('',(0.,0.,1.));
#328=DIRECTION('',(1.,0.,0.));
#329=DIRECTION('',(0.,1.,0.));
#330=DIRECTION('',(0.,0.,1.));
#331=DIRECTION('',(1.,0.,0.));
#332=DIRECTION('',(0.,0.,-1.));
#333=DIRECTION('',(1.,0.,0.));
#334=DIRECTION('',(0.,0.,-1.));
#335=DIRECTION('',(0.,0.,-1.));
#336=DIRECTION('',(-1.,0.,0.));
#337=DIRECTION('',(0.,0.,1.));
#338=DIRECTION('',(1.,0.,0.));
#339=DIRECTION('',(0.,0.,-1.));
#340=DIRECTION('',(0.,0.,1.));
#341=DIRECTION('',(1.,0.,0.));
#342=DIRECTION('',(0.,1.,0.));
#343=DIRECTION('',(0.,0.,1.));
#344=DIRECTION('',(1.,0.,0.));
#345=DIRECTION('',(0.,0.,-1.));
#346=DIRECTION('',(1.,0.,0.));
#347=DIRECTION('',(4.33680868994202E-16,-1.,0.));
#348=DIRECTION('',(1.,4.33680868994202E-16,0.));
#349=DIRECTION('',(-1.,-4.33680868994202E-16,0.));
#350=DIRECTION('',(0.,0.,-1.));
#351=DIRECTION('',(-1.,-4.33680868994202E-16,0.));
#352=DIRECTION('',(0.,0.,-1.));
#353=DIRECTION('',(-1.,6.42490176287706E-17,0.));
#354=DIRECTION('',(-6.42490176287706E-17,-1.,0.));
#355=DIRECTION('',(6.42490176287706E-17,1.,0.));
#356=DIRECTION('',(0.,0.,-1.));
#357=DIRECTION('',(6.42490176287706E-17,1.,0.));
#358=DIRECTION('',(0.,-1.,0.));
#359=DIRECTION('',(0.,0.,-1.));
#360=DIRECTION('',(-1.,0.,0.));
#361=DIRECTION('',(0.,0.,-1.));
#362=DIRECTION('',(-1.,0.,0.));
#363=DIRECTION('',(0.,0.,-1.));
#364=DIRECTION('',(-1.,0.,0.));
#365=DIRECTION('',(0.,0.,1.));
#366=DIRECTION('',(1.,0.,0.));
#367=DIRECTION('',(0.,0.,1.));
#368=DIRECTION('',(1.,0.,0.));
#369=DIRECTION('',(-1.,6.42490176287706E-17,0.));
#370=DIRECTION('',(-6.42490176287706E-17,-1.,0.));
#371=DIRECTION('',(6.42490176287706E-17,1.,0.));
#372=DIRECTION('',(6.42490176287706E-17,1.,0.));
#373=DIRECTION('',(-3.46944695195362E-16,1.,0.));
#374=DIRECTION('',(-1.,-3.46944695195362E-16,0.));
#375=DIRECTION('',(1.,3.46944695195362E-16,0.));
#376=DIRECTION('',(1.,3.46944695195362E-16,0.));
#377=DIRECTION('',(0.,0.,1.));
#378=DIRECTION('',(1.,0.,0.));
#379=DIRECTION('',(0.,0.,1.));
#380=DIRECTION('',(1.,0.,0.));
#381=CARTESIAN_POINT('',(0.,0.,0.));
#382=CARTESIAN_POINT('',(-0.01,-0.02,0.0034));
#383=CARTESIAN_POINT('',(-0.01,-0.02,0.));
#384=CARTESIAN_POINT('',(-0.01,-0.0155,0.));
#385=CARTESIAN_POINT('',(-0.01,-0.0245,0.));
#386=CARTESIAN_POINT('',(-0.01,-0.0155,0.0034));
#387=CARTESIAN_POINT('',(-0.01,-0.0155,0.0034));
#388=CARTESIAN_POINT('',(-0.01,-0.02,0.0034));
#389=CARTESIAN_POINT('',(-0.01,-0.0245,0.0034));
#390=CARTESIAN_POINT('',(-0.01,-0.0245,0.0034));
#391=CARTESIAN_POINT('',(3.46944695195361E-18,-0.0155,0.0034));
#392=CARTESIAN_POINT('',(3.46944695195361E-18,-0.0155,0.));
#393=CARTESIAN_POINT('',(0.01,-0.0155,0.));
#394=CARTESIAN_POINT('',(0.01,-0.0155,0.0034));
#395=CARTESIAN_POINT('',(0.01,-0.0155,0.0034));
#396=CARTESIAN_POINT('',(3.46944695195361E-18,-0.0155,0.0034));
#397=CARTESIAN_POINT('',(0.01,-0.02,0.0034));
#398=CARTESIAN_POINT('',(0.01,-0.02,0.));
#399=CARTESIAN_POINT('',(0.01,-0.0245,0.));
#400=CARTESIAN_POINT('',(0.01,-0.0245,0.0034));
#401=CARTESIAN_POINT('',(0.01,-0.0245,0.0034));
#402=CARTESIAN_POINT('',(0.01,-0.02,0.0034));
#403=CARTESIAN_POINT('',(-1.7347234759768E-18,0.0245,0.0034));
#404=CARTESIAN_POINT('',(-1.7347234759768E-18,0.0245,0.));
#405=CARTESIAN_POINT('',(-0.01,0.0245,0.));
#406=CARTESIAN_POINT('',(0.01,0.0245,0.));
#407=CARTESIAN_POINT('',(0.01,0.0245,0.0034));
#408=CARTESIAN_POINT('',(0.01,0.0245,0.0034));
#409=CARTESIAN_POINT('',(-1.7347234759768E-18,0.0245,0.0034));
#410=CARTESIAN_POINT('',(-0.01,0.0245,0.0034));
#411=CARTESIAN_POINT('',(-0.01,0.0245,0.0034));
#412=CARTESIAN_POINT('',(0.01,0.02,0.0034));
#413=CARTESIAN_POINT('',(0.01,0.02,0.));
#414=CARTESIAN_POINT('',(0.01,0.0155,0.));
#415=CARTESIAN_POINT('',(0.01,0.0155,0.0034));
#416=CARTESIAN_POINT('',(0.01,0.0155,0.0034));
#417=CARTESIAN_POINT('',(0.01,0.02,0.0034));
#418=CARTESIAN_POINT('',(-3.46944695195361E-18,0.0155,0.0034));
#419=CARTESIAN_POINT('',(-3.46944695195361E-18,0.0155,0.));
#420=CARTESIAN_POINT('',(-0.01,0.0155,0.));
#421=CARTESIAN_POINT('',(-0.01,0.0155,0.0034));
#422=CARTESIAN_POINT('',(-0.01,0.0155,0.0034));
#423=CARTESIAN_POINT('',(-3.46944695195361E-18,0.0155,0.0034));
#424=CARTESIAN_POINT('',(0.014,0.027,0.0034));
#425=CARTESIAN_POINT('',(0.014,0.027,0.));
#426=CARTESIAN_POINT('',(0.018,0.027,0.));
#427=CARTESIAN_POINT('',(-0.018,0.027,0.));
#428=CARTESIAN_POINT('',(-0.018,0.027,0.0034));
#429=CARTESIAN_POINT('',(-0.018,0.027,0.0034));
#430=CARTESIAN_POINT('',(0.014,0.027,0.0034));
#431=CARTESIAN_POINT('',(0.018,0.027,0.0034));
#432=CARTESIAN_POINT('',(0.018,0.027,0.0034));
#433=CARTESIAN_POINT('',(-0.018,1.7347234759768E-18,0.0034));
#434=CARTESIAN_POINT('',(-0.018,1.7347234759768E-18,0.));
#435=CARTESIAN_POINT('',(-0.018,-0.027,0.));
#436=CARTESIAN_POINT('',(-0.018,-0.027,0.0034));
#437=CARTESIAN_POINT('',(-0.018,-0.027,0.0034));
#438=CARTESIAN_POINT('',(-0.018,1.7347234759768E-18,0.0034));
#439=CARTESIAN_POINT('',(-0.014,-0.027,0.0034));
#440=CARTESIAN_POINT('',(-0.014,-0.027,0.));
#441=CARTESIAN_POINT('',(0.018,-0.027,0.));
#442=CARTESIAN_POINT('',(0.018,-0.027,0.0034));
#443=CARTESIAN_POINT('',(0.018,-0.027,0.0034));
#444=CARTESIAN_POINT('',(-0.014,-0.027,0.0034));
#445=CARTESIAN_POINT('',(-0.01,0.02,0.0034));
#446=CARTESIAN_POINT('',(-0.01,0.02,0.));
#447=CARTESIAN_POINT('',(-0.01,0.02,0.0034));
#448=CARTESIAN_POINT('',(0.018,1.7347234759768E-18,0.0034));
#449=CARTESIAN_POINT('',(0.018,1.7347234759768E-18,0.));
#450=CARTESIAN_POINT('',(0.018,1.7347234759768E-18,0.0034));
#451=CARTESIAN_POINT('',(3.46944695195361E-18,-0.0245,0.0034));
#452=CARTESIAN_POINT('',(3.46944695195361E-18,-0.0245,0.));
#453=CARTESIAN_POINT('',(3.46944695195361E-18,-0.0245,0.0034));
#454=CARTESIAN_POINT('',(5.20699936151781E-6,-3.89512927789597E-5,0.0034));
#455=CARTESIAN_POINT('',(5.20699936151781E-6,-3.89512927789597E-5,0.));
#456=MECHANICAL_DESIGN_GEOMETRIC_PRESENTATION_REPRESENTATION('',(#273),
#457);
#457=(
GEOMETRIC_REPRESENTATION_CONTEXT(3)
GLOBAL_UNCERTAINTY_ASSIGNED_CONTEXT((#458))
GLOBAL_UNIT_ASSIGNED_CONTEXT((#461,#460,#459))
REPRESENTATION_CONTEXT('DSCP017-M340','TOP_LEVEL_ASSEMBLY_PART')
);
#458=UNCERTAINTY_MEASURE_WITH_UNIT(LENGTH_MEASURE(5.E-6),#461,
'DISTANCE_ACCURACY_VALUE','Maximum Tolerance applied to model');
#459=(
NAMED_UNIT(*)
SI_UNIT($,.STERADIAN.)
SOLID_ANGLE_UNIT()
);
#460=(
NAMED_UNIT(*)
PLANE_ANGLE_UNIT()
SI_UNIT($,.RADIAN.)
);
#461=(
LENGTH_UNIT()
NAMED_UNIT(*)
SI_UNIT($,.METRE.)
);
#462=PRODUCT_DEFINITION_SHAPE('','',#463);
#463=PRODUCT_DEFINITION('','',#465,#464);
#464=PRODUCT_DEFINITION_CONTEXT('',#471,'design');
#465=PRODUCT_DEFINITION_FORMATION_WITH_SPECIFIED_SOURCE('','',#467,
 .NOT_KNOWN.);
#466=PRODUCT_RELATED_PRODUCT_CATEGORY('','',(#467));
#467=PRODUCT('DSCP017-M340','DSCP017-M340','DSCP017-M340',(#469));
#468=PRODUCT_CATEGORY('','');
#469=PRODUCT_CONTEXT('',#471,'mechanical');
#470=APPLICATION_PROTOCOL_DEFINITION('international standard',
'ap242_managed_model_based_3d_engineering',2011,#471);
#471=APPLICATION_CONTEXT('managed model based 3d engineering');
ENDSEC;
END-ISO-10303-21;
