ISO-10303-21;
HEADER;
/* Generated by software containing ST-Developer
 * from STEP Tools, Inc. (www.steptools.com) 
 */
/* OPTION: using custom renumber hook */

FILE_DESCRIPTION(
/* description */ ('STEP AP242',
'CAx-IF Rec.Pracs.---Representation and Presentation of Product Manufa
cturing Information (PMI)---4.0---2014-10-13',
'CAx-IF Rec.Pracs.---3D Tessellated Geometry---0.4---2014-09-14','2;1'),

/* implementation_level */ '2;1');

FILE_NAME(
/* name */ '6284f23bca57ed6300791e01',
/* time_stamp */ '2022-05-18T13:18:52+00:00',
/* author */ (''),
/* organization */ (''),
/* preprocessor_version */ 'ST-DEVELOPER v18.102',
/* originating_system */ '  ',
/* authorisation */ '  ');

FILE_SCHEMA (('AP242_MANAGED_MODEL_BASED_3D_ENGINEERING_MIM_LF { 1 0 10303 442 1 1 4 }'));
ENDSEC;

DATA;
#10=SHAPE_REPRESENTATION_RELATIONSHIP('','',#299,#11);
#11=ADVANCED_BREP_SHAPE_REPRESENTATION('',(#297),#479);
#12=CIRCLE('',#306,0.004318);
#13=CIRCLE('',#307,0.004318);
#14=CIRCLE('',#314,0.004318);
#15=CIRCLE('',#315,0.004318);
#16=CIRCLE('',#318,0.004318);
#17=CIRCLE('',#319,0.004318);
#18=CYLINDRICAL_SURFACE('',#305,0.004318);
#19=CYLINDRICAL_SURFACE('',#313,0.004318);
#20=CYLINDRICAL_SURFACE('',#317,0.004318);
#21=ORIENTED_EDGE('',*,*,#97,.F.);
#22=ORIENTED_EDGE('',*,*,#98,.F.);
#23=ORIENTED_EDGE('',*,*,#99,.T.);
#24=ORIENTED_EDGE('',*,*,#100,.T.);
#25=ORIENTED_EDGE('',*,*,#101,.F.);
#26=ORIENTED_EDGE('',*,*,#102,.F.);
#27=ORIENTED_EDGE('',*,*,#103,.T.);
#28=ORIENTED_EDGE('',*,*,#98,.T.);
#29=ORIENTED_EDGE('',*,*,#104,.T.);
#30=ORIENTED_EDGE('',*,*,#105,.F.);
#31=ORIENTED_EDGE('',*,*,#106,.F.);
#32=ORIENTED_EDGE('',*,*,#102,.T.);
#33=ORIENTED_EDGE('',*,*,#107,.F.);
#34=ORIENTED_EDGE('',*,*,#108,.F.);
#35=ORIENTED_EDGE('',*,*,#109,.T.);
#36=ORIENTED_EDGE('',*,*,#105,.T.);
#37=ORIENTED_EDGE('',*,*,#110,.F.);
#38=ORIENTED_EDGE('',*,*,#111,.F.);
#39=ORIENTED_EDGE('',*,*,#112,.T.);
#40=ORIENTED_EDGE('',*,*,#108,.T.);
#41=ORIENTED_EDGE('',*,*,#113,.T.);
#42=ORIENTED_EDGE('',*,*,#114,.F.);
#43=ORIENTED_EDGE('',*,*,#115,.F.);
#44=ORIENTED_EDGE('',*,*,#111,.T.);
#45=ORIENTED_EDGE('',*,*,#116,.T.);
#46=ORIENTED_EDGE('',*,*,#117,.F.);
#47=ORIENTED_EDGE('',*,*,#118,.F.);
#48=ORIENTED_EDGE('',*,*,#114,.T.);
#49=ORIENTED_EDGE('',*,*,#119,.T.);
#50=ORIENTED_EDGE('',*,*,#120,.F.);
#51=ORIENTED_EDGE('',*,*,#121,.F.);
#52=ORIENTED_EDGE('',*,*,#117,.T.);
#53=ORIENTED_EDGE('',*,*,#122,.F.);
#54=ORIENTED_EDGE('',*,*,#123,.F.);
#55=ORIENTED_EDGE('',*,*,#124,.T.);
#56=ORIENTED_EDGE('',*,*,#120,.T.);
#57=ORIENTED_EDGE('',*,*,#125,.F.);
#58=ORIENTED_EDGE('',*,*,#126,.F.);
#59=ORIENTED_EDGE('',*,*,#127,.T.);
#60=ORIENTED_EDGE('',*,*,#123,.T.);
#61=ORIENTED_EDGE('',*,*,#128,.F.);
#62=ORIENTED_EDGE('',*,*,#129,.F.);
#63=ORIENTED_EDGE('',*,*,#130,.T.);
#64=ORIENTED_EDGE('',*,*,#126,.T.);
#65=ORIENTED_EDGE('',*,*,#131,.T.);
#66=ORIENTED_EDGE('',*,*,#100,.F.);
#67=ORIENTED_EDGE('',*,*,#132,.F.);
#68=ORIENTED_EDGE('',*,*,#129,.T.);
#69=ORIENTED_EDGE('',*,*,#133,.T.);
#70=ORIENTED_EDGE('',*,*,#134,.F.);
#71=ORIENTED_EDGE('',*,*,#99,.F.);
#72=ORIENTED_EDGE('',*,*,#103,.F.);
#73=ORIENTED_EDGE('',*,*,#106,.T.);
#74=ORIENTED_EDGE('',*,*,#109,.F.);
#75=ORIENTED_EDGE('',*,*,#112,.F.);
#76=ORIENTED_EDGE('',*,*,#115,.T.);
#77=ORIENTED_EDGE('',*,*,#118,.T.);
#78=ORIENTED_EDGE('',*,*,#121,.T.);
#79=ORIENTED_EDGE('',*,*,#124,.F.);
#80=ORIENTED_EDGE('',*,*,#127,.F.);
#81=ORIENTED_EDGE('',*,*,#130,.F.);
#82=ORIENTED_EDGE('',*,*,#132,.T.);
#83=ORIENTED_EDGE('',*,*,#133,.F.);
#84=ORIENTED_EDGE('',*,*,#97,.T.);
#85=ORIENTED_EDGE('',*,*,#131,.F.);
#86=ORIENTED_EDGE('',*,*,#128,.T.);
#87=ORIENTED_EDGE('',*,*,#125,.T.);
#88=ORIENTED_EDGE('',*,*,#122,.T.);
#89=ORIENTED_EDGE('',*,*,#119,.F.);
#90=ORIENTED_EDGE('',*,*,#116,.F.);
#91=ORIENTED_EDGE('',*,*,#113,.F.);
#92=ORIENTED_EDGE('',*,*,#110,.T.);
#93=ORIENTED_EDGE('',*,*,#107,.T.);
#94=ORIENTED_EDGE('',*,*,#104,.F.);
#95=ORIENTED_EDGE('',*,*,#101,.T.);
#96=ORIENTED_EDGE('',*,*,#134,.T.);
#97=EDGE_CURVE('',#135,#136,#161,.T.);
#98=EDGE_CURVE('',#137,#135,#162,.T.);
#99=EDGE_CURVE('',#137,#138,#163,.T.);
#100=EDGE_CURVE('',#138,#136,#164,.T.);
#101=EDGE_CURVE('',#139,#135,#165,.T.);
#102=EDGE_CURVE('',#140,#139,#166,.T.);
#103=EDGE_CURVE('',#140,#137,#167,.T.);
#104=EDGE_CURVE('',#139,#141,#168,.T.);
#105=EDGE_CURVE('',#142,#141,#169,.T.);
#106=EDGE_CURVE('',#140,#142,#170,.T.);
#107=EDGE_CURVE('',#143,#141,#171,.T.);
#108=EDGE_CURVE('',#144,#143,#172,.T.);
#109=EDGE_CURVE('',#144,#142,#173,.T.);
#110=EDGE_CURVE('',#145,#143,#12,.T.);
#111=EDGE_CURVE('',#146,#145,#174,.T.);
#112=EDGE_CURVE('',#146,#144,#13,.T.);
#113=EDGE_CURVE('',#145,#147,#175,.T.);
#114=EDGE_CURVE('',#148,#147,#176,.T.);
#115=EDGE_CURVE('',#146,#148,#177,.T.);
#116=EDGE_CURVE('',#147,#149,#178,.T.);
#117=EDGE_CURVE('',#150,#149,#179,.T.);
#118=EDGE_CURVE('',#148,#150,#180,.T.);
#119=EDGE_CURVE('',#149,#151,#181,.T.);
#120=EDGE_CURVE('',#152,#151,#182,.T.);
#121=EDGE_CURVE('',#150,#152,#183,.T.);
#122=EDGE_CURVE('',#153,#151,#184,.T.);
#123=EDGE_CURVE('',#154,#153,#185,.T.);
#124=EDGE_CURVE('',#154,#152,#186,.T.);
#125=EDGE_CURVE('',#155,#153,#187,.T.);
#126=EDGE_CURVE('',#156,#155,#188,.T.);
#127=EDGE_CURVE('',#156,#154,#189,.T.);
#128=EDGE_CURVE('',#157,#155,#14,.T.);
#129=EDGE_CURVE('',#158,#157,#190,.T.);
#130=EDGE_CURVE('',#158,#156,#15,.T.);
#131=EDGE_CURVE('',#157,#136,#191,.T.);
#132=EDGE_CURVE('',#158,#138,#192,.T.);
#133=EDGE_CURVE('',#159,#159,#16,.T.);
#134=EDGE_CURVE('',#160,#160,#17,.T.);
#135=VERTEX_POINT('',#401);
#136=VERTEX_POINT('',#402);
#137=VERTEX_POINT('',#404);
#138=VERTEX_POINT('',#406);
#139=VERTEX_POINT('',#410);
#140=VERTEX_POINT('',#412);
#141=VERTEX_POINT('',#416);
#142=VERTEX_POINT('',#418);
#143=VERTEX_POINT('',#422);
#144=VERTEX_POINT('',#424);
#145=VERTEX_POINT('',#428);
#146=VERTEX_POINT('',#430);
#147=VERTEX_POINT('',#434);
#148=VERTEX_POINT('',#436);
#149=VERTEX_POINT('',#440);
#150=VERTEX_POINT('',#442);
#151=VERTEX_POINT('',#446);
#152=VERTEX_POINT('',#448);
#153=VERTEX_POINT('',#452);
#154=VERTEX_POINT('',#454);
#155=VERTEX_POINT('',#458);
#156=VERTEX_POINT('',#460);
#157=VERTEX_POINT('',#464);
#158=VERTEX_POINT('',#466);
#159=VERTEX_POINT('',#473);
#160=VERTEX_POINT('',#475);
#161=LINE('',#400,#193);
#162=LINE('',#403,#194);
#163=LINE('',#405,#195);
#164=LINE('',#407,#196);
#165=LINE('',#409,#197);
#166=LINE('',#411,#198);
#167=LINE('',#413,#199);
#168=LINE('',#415,#200);
#169=LINE('',#417,#201);
#170=LINE('',#419,#202);
#171=LINE('',#421,#203);
#172=LINE('',#423,#204);
#173=LINE('',#425,#205);
#174=LINE('',#429,#206);
#175=LINE('',#433,#207);
#176=LINE('',#435,#208);
#177=LINE('',#437,#209);
#178=LINE('',#439,#210);
#179=LINE('',#441,#211);
#180=LINE('',#443,#212);
#181=LINE('',#445,#213);
#182=LINE('',#447,#214);
#183=LINE('',#449,#215);
#184=LINE('',#451,#216);
#185=LINE('',#453,#217);
#186=LINE('',#455,#218);
#187=LINE('',#457,#219);
#188=LINE('',#459,#220);
#189=LINE('',#461,#221);
#190=LINE('',#465,#222);
#191=LINE('',#469,#223);
#192=LINE('',#470,#224);
#193=VECTOR('',#326,1.);
#194=VECTOR('',#327,1.);
#195=VECTOR('',#328,1.);
#196=VECTOR('',#329,1.);
#197=VECTOR('',#332,1.);
#198=VECTOR('',#333,1.);
#199=VECTOR('',#334,1.);
#200=VECTOR('',#337,1.);
#201=VECTOR('',#338,1.);
#202=VECTOR('',#339,1.);
#203=VECTOR('',#342,1.);
#204=VECTOR('',#343,1.);
#205=VECTOR('',#344,1.);
#206=VECTOR('',#349,1.);
#207=VECTOR('',#354,1.);
#208=VECTOR('',#355,1.);
#209=VECTOR('',#356,1.);
#210=VECTOR('',#359,1.);
#211=VECTOR('',#360,1.);
#212=VECTOR('',#361,1.);
#213=VECTOR('',#364,1.);
#214=VECTOR('',#365,1.);
#215=VECTOR('',#366,1.);
#216=VECTOR('',#369,1.);
#217=VECTOR('',#370,1.);
#218=VECTOR('',#371,1.);
#219=VECTOR('',#374,1.);
#220=VECTOR('',#375,1.);
#221=VECTOR('',#376,1.);
#222=VECTOR('',#381,1.);
#223=VECTOR('',#386,1.);
#224=VECTOR('',#387,1.);
#225=EDGE_LOOP('',(#21,#22,#23,#24));
#226=EDGE_LOOP('',(#25,#26,#27,#28));
#227=EDGE_LOOP('',(#29,#30,#31,#32));
#228=EDGE_LOOP('',(#33,#34,#35,#36));
#229=EDGE_LOOP('',(#37,#38,#39,#40));
#230=EDGE_LOOP('',(#41,#42,#43,#44));
#231=EDGE_LOOP('',(#45,#46,#47,#48));
#232=EDGE_LOOP('',(#49,#50,#51,#52));
#233=EDGE_LOOP('',(#53,#54,#55,#56));
#234=EDGE_LOOP('',(#57,#58,#59,#60));
#235=EDGE_LOOP('',(#61,#62,#63,#64));
#236=EDGE_LOOP('',(#65,#66,#67,#68));
#237=EDGE_LOOP('',(#69));
#238=EDGE_LOOP('',(#70));
#239=EDGE_LOOP('',(#71,#72,#73,#74,#75,#76,#77,#78,#79,#80,#81,#82));
#240=EDGE_LOOP('',(#83));
#241=EDGE_LOOP('',(#84,#85,#86,#87,#88,#89,#90,#91,#92,#93,#94,#95));
#242=EDGE_LOOP('',(#96));
#243=FACE_BOUND('',#225,.T.);
#244=FACE_BOUND('',#226,.T.);
#245=FACE_BOUND('',#227,.T.);
#246=FACE_BOUND('',#228,.T.);
#247=FACE_BOUND('',#229,.T.);
#248=FACE_BOUND('',#230,.T.);
#249=FACE_BOUND('',#231,.T.);
#250=FACE_BOUND('',#232,.T.);
#251=FACE_BOUND('',#233,.T.);
#252=FACE_BOUND('',#234,.T.);
#253=FACE_BOUND('',#235,.T.);
#254=FACE_BOUND('',#236,.T.);
#255=FACE_BOUND('',#237,.T.);
#256=FACE_BOUND('',#238,.T.);
#257=FACE_BOUND('',#239,.T.);
#258=FACE_BOUND('',#240,.T.);
#259=FACE_BOUND('',#241,.T.);
#260=FACE_BOUND('',#242,.T.);
#261=PLANE('',#301);
#262=PLANE('',#302);
#263=PLANE('',#303);
#264=PLANE('',#304);
#265=PLANE('',#308);
#266=PLANE('',#309);
#267=PLANE('',#310);
#268=PLANE('',#311);
#269=PLANE('',#312);
#270=PLANE('',#316);
#271=PLANE('',#320);
#272=PLANE('',#321);
#273=ADVANCED_FACE('',(#243),#261,.T.);
#274=ADVANCED_FACE('',(#244),#262,.T.);
#275=ADVANCED_FACE('',(#245),#263,.F.);
#276=ADVANCED_FACE('',(#246),#264,.T.);
#277=ADVANCED_FACE('',(#247),#18,.F.);
#278=ADVANCED_FACE('',(#248),#265,.F.);
#279=ADVANCED_FACE('',(#249),#266,.F.);
#280=ADVANCED_FACE('',(#250),#267,.F.);
#281=ADVANCED_FACE('',(#251),#268,.T.);
#282=ADVANCED_FACE('',(#252),#269,.T.);
#283=ADVANCED_FACE('',(#253),#19,.F.);
#284=ADVANCED_FACE('',(#254),#270,.F.);
#285=ADVANCED_FACE('',(#255,#256),#20,.F.);
#286=ADVANCED_FACE('',(#257,#258),#271,.T.);
#287=ADVANCED_FACE('',(#259,#260),#272,.F.);
#288=CLOSED_SHELL('',(#273,#274,#275,#276,#277,#278,#279,#280,#281,#282,
#283,#284,#285,#286,#287));
#289=STYLED_ITEM('',(#290),#297);
#290=PRESENTATION_STYLE_ASSIGNMENT((#291));
#291=SURFACE_STYLE_USAGE(.BOTH.,#292);
#292=SURFACE_SIDE_STYLE('',(#293));
#293=SURFACE_STYLE_FILL_AREA(#294);
#294=FILL_AREA_STYLE('',(#295));
#295=FILL_AREA_STYLE_COLOUR('',#296);
#296=COLOUR_RGB('',0.498039215686275,0.498039215686275,0.498039215686275);
#297=MANIFOLD_SOLID_BREP('DSCP019-M425',#288);
#298=SHAPE_DEFINITION_REPRESENTATION(#484,#299);
#299=SHAPE_REPRESENTATION('DSCP019-M425',(#300),#479);
#300=AXIS2_PLACEMENT_3D('',#398,#322,#323);
#301=AXIS2_PLACEMENT_3D('',#399,#324,#325);
#302=AXIS2_PLACEMENT_3D('',#408,#330,#331);
#303=AXIS2_PLACEMENT_3D('',#414,#335,#336);
#304=AXIS2_PLACEMENT_3D('',#420,#340,#341);
#305=AXIS2_PLACEMENT_3D('',#426,#345,#346);
#306=AXIS2_PLACEMENT_3D('',#427,#347,#348);
#307=AXIS2_PLACEMENT_3D('',#431,#350,#351);
#308=AXIS2_PLACEMENT_3D('',#432,#352,#353);
#309=AXIS2_PLACEMENT_3D('',#438,#357,#358);
#310=AXIS2_PLACEMENT_3D('',#444,#362,#363);
#311=AXIS2_PLACEMENT_3D('',#450,#367,#368);
#312=AXIS2_PLACEMENT_3D('',#456,#372,#373);
#313=AXIS2_PLACEMENT_3D('',#462,#377,#378);
#314=AXIS2_PLACEMENT_3D('',#463,#379,#380);
#315=AXIS2_PLACEMENT_3D('',#467,#382,#383);
#316=AXIS2_PLACEMENT_3D('',#468,#384,#385);
#317=AXIS2_PLACEMENT_3D('',#471,#388,#389);
#318=AXIS2_PLACEMENT_3D('',#472,#390,#391);
#319=AXIS2_PLACEMENT_3D('',#474,#392,#393);
#320=AXIS2_PLACEMENT_3D('',#476,#394,#395);
#321=AXIS2_PLACEMENT_3D('',#477,#396,#397);
#322=DIRECTION('',(0.,0.,1.));
#323=DIRECTION('',(1.,0.,0.));
#324=DIRECTION('',(-1.,0.,0.));
#325=DIRECTION('',(0.,0.,1.));
#326=DIRECTION('',(0.,1.,0.));
#327=DIRECTION('',(0.,0.,-1.));
#328=DIRECTION('',(0.,1.,0.));
#329=DIRECTION('',(0.,0.,-1.));
#330=DIRECTION('',(3.64246399155235E-16,-1.,0.));
#331=DIRECTION('',(1.,3.64246399155235E-16,0.));
#332=DIRECTION('',(-1.,-3.64246399155235E-16,0.));
#333=DIRECTION('',(0.,0.,-1.));
#334=DIRECTION('',(-1.,-3.64246399155235E-16,0.));
#335=DIRECTION('',(-1.,0.,0.));
#336=DIRECTION('',(0.,0.,1.));
#337=DIRECTION('',(0.,1.,0.));
#338=DIRECTION('',(0.,0.,-1.));
#339=DIRECTION('',(0.,1.,0.));
#340=DIRECTION('',(-2.73184799366426E-16,1.,0.));
#341=DIRECTION('',(-1.,-2.73184799366426E-16,0.));
#342=DIRECTION('',(1.,2.73184799366426E-16,0.));
#343=DIRECTION('',(0.,0.,-1.));
#344=DIRECTION('',(1.,2.73184799366426E-16,0.));
#345=DIRECTION('',(0.,0.,-1.));
#346=DIRECTION('',(-1.,0.,0.));
#347=DIRECTION('',(0.,0.,1.));
#348=DIRECTION('',(1.,0.,0.));
#349=DIRECTION('',(0.,0.,-1.));
#350=DIRECTION('',(0.,0.,1.));
#351=DIRECTION('',(1.,0.,0.));
#352=DIRECTION('',(0.,1.,0.));
#353=DIRECTION('',(0.,0.,1.));
#354=DIRECTION('',(1.,0.,0.));
#355=DIRECTION('',(0.,0.,-1.));
#356=DIRECTION('',(1.,0.,0.));
#357=DIRECTION('',(-1.,0.,0.));
#358=DIRECTION('',(0.,0.,1.));
#359=DIRECTION('',(0.,1.,0.));
#360=DIRECTION('',(0.,0.,-1.));
#361=DIRECTION('',(0.,1.,0.));
#362=DIRECTION('',(3.64246399155235E-16,-1.,0.));
#363=DIRECTION('',(1.,3.64246399155235E-16,0.));
#364=DIRECTION('',(-1.,-3.64246399155235E-16,0.));
#365=DIRECTION('',(0.,0.,-1.));
#366=DIRECTION('',(-1.,-3.64246399155235E-16,0.));
#367=DIRECTION('',(-1.,0.,0.));
#368=DIRECTION('',(0.,0.,1.));
#369=DIRECTION('',(0.,1.,0.));
#370=DIRECTION('',(0.,0.,-1.));
#371=DIRECTION('',(0.,1.,0.));
#372=DIRECTION('',(0.,-1.,0.));
#373=DIRECTION('',(0.,0.,-1.));
#374=DIRECTION('',(-1.,0.,0.));
#375=DIRECTION('',(0.,0.,-1.));
#376=DIRECTION('',(-1.,0.,0.));
#377=DIRECTION('',(0.,0.,-1.));
#378=DIRECTION('',(-1.,0.,0.));
#379=DIRECTION('',(0.,0.,1.));
#380=DIRECTION('',(1.,0.,0.));
#381=DIRECTION('',(0.,0.,-1.));
#382=DIRECTION('',(0.,0.,1.));
#383=DIRECTION('',(1.,0.,0.));
#384=DIRECTION('',(2.73184799366426E-16,-1.,0.));
#385=DIRECTION('',(1.,2.73184799366426E-16,0.));
#386=DIRECTION('',(-1.,-2.73184799366426E-16,0.));
#387=DIRECTION('',(-1.,-2.73184799366426E-16,0.));
#388=DIRECTION('',(0.,0.,-1.));
#389=DIRECTION('',(-1.,0.,0.));
#390=DIRECTION('',(0.,0.,1.));
#391=DIRECTION('',(1.,0.,0.));
#392=DIRECTION('',(0.,0.,1.));
#393=DIRECTION('',(1.,0.,0.));
#394=DIRECTION('',(0.,0.,1.));
#395=DIRECTION('',(1.,0.,0.));
#396=DIRECTION('',(0.,0.,1.));
#397=DIRECTION('',(1.,0.,0.));
#398=CARTESIAN_POINT('',(0.,0.,0.));
#399=CARTESIAN_POINT('',(-0.01905,-0.00771525,0.00425));
#400=CARTESIAN_POINT('',(-0.01905,-0.00771525,0.));
#401=CARTESIAN_POINT('',(-0.01905,-0.0111125,0.));
#402=CARTESIAN_POINT('',(-0.01905,-0.004318,0.));
#403=CARTESIAN_POINT('',(-0.01905,-0.0111125,0.00425));
#404=CARTESIAN_POINT('',(-0.01905,-0.0111125,0.00425));
#405=CARTESIAN_POINT('',(-0.01905,-0.00771525,0.00425));
#406=CARTESIAN_POINT('',(-0.01905,-0.004318,0.00425));
#407=CARTESIAN_POINT('',(-0.01905,-0.004318,0.00425));
#408=CARTESIAN_POINT('',(8.67361737988404E-18,-0.0111125,0.00425));
#409=CARTESIAN_POINT('',(8.67361737988404E-18,-0.0111125,0.));
#410=CARTESIAN_POINT('',(0.01905,-0.0111125,0.));
#411=CARTESIAN_POINT('',(0.01905,-0.0111125,0.00425));
#412=CARTESIAN_POINT('',(0.01905,-0.0111125,0.00425));
#413=CARTESIAN_POINT('',(8.67361737988404E-18,-0.0111125,0.00425));
#414=CARTESIAN_POINT('',(0.01905,-0.00771525,0.00425));
#415=CARTESIAN_POINT('',(0.01905,-0.00771525,0.));
#416=CARTESIAN_POINT('',(0.01905,-0.004318,0.));
#417=CARTESIAN_POINT('',(0.01905,-0.004318,0.00425));
#418=CARTESIAN_POINT('',(0.01905,-0.004318,0.00425));
#419=CARTESIAN_POINT('',(0.01905,-0.00771525,0.00425));
#420=CARTESIAN_POINT('',(0.015875,-0.004318,0.00425));
#421=CARTESIAN_POINT('',(0.015875,-0.004318,0.));
#422=CARTESIAN_POINT('',(0.0127,-0.004318,0.));
#423=CARTESIAN_POINT('',(0.0127,-0.004318,0.00425));
#424=CARTESIAN_POINT('',(0.0127,-0.004318,0.00425));
#425=CARTESIAN_POINT('',(0.015875,-0.004318,0.00425));
#426=CARTESIAN_POINT('',(0.0127,0.,0.00425));
#427=CARTESIAN_POINT('',(0.0127,0.,0.));
#428=CARTESIAN_POINT('',(0.0127,0.004318,0.));
#429=CARTESIAN_POINT('',(0.0127,0.004318,0.00425));
#430=CARTESIAN_POINT('',(0.0127,0.004318,0.00425));
#431=CARTESIAN_POINT('',(0.0127,0.,0.00425));
#432=CARTESIAN_POINT('',(0.015875,0.004318,0.00425));
#433=CARTESIAN_POINT('',(0.015875,0.004318,0.));
#434=CARTESIAN_POINT('',(0.01905,0.004318,0.));
#435=CARTESIAN_POINT('',(0.01905,0.004318,0.00425));
#436=CARTESIAN_POINT('',(0.01905,0.004318,0.00425));
#437=CARTESIAN_POINT('',(0.015875,0.004318,0.00425));
#438=CARTESIAN_POINT('',(0.01905,0.00771525,0.00425));
#439=CARTESIAN_POINT('',(0.01905,0.00771525,0.));
#440=CARTESIAN_POINT('',(0.01905,0.0111125,0.));
#441=CARTESIAN_POINT('',(0.01905,0.0111125,0.00425));
#442=CARTESIAN_POINT('',(0.01905,0.0111125,0.00425));
#443=CARTESIAN_POINT('',(0.01905,0.00771525,0.00425));
#444=CARTESIAN_POINT('',(0.,0.0111125,0.00425));
#445=CARTESIAN_POINT('',(0.,0.0111125,0.));
#446=CARTESIAN_POINT('',(-0.01905,0.0111125,0.));
#447=CARTESIAN_POINT('',(-0.01905,0.0111125,0.00425));
#448=CARTESIAN_POINT('',(-0.01905,0.0111125,0.00425));
#449=CARTESIAN_POINT('',(0.,0.0111125,0.00425));
#450=CARTESIAN_POINT('',(-0.01905,0.00771525,0.00425));
#451=CARTESIAN_POINT('',(-0.01905,0.00771525,0.));
#452=CARTESIAN_POINT('',(-0.01905,0.004318,0.));
#453=CARTESIAN_POINT('',(-0.01905,0.004318,0.00425));
#454=CARTESIAN_POINT('',(-0.01905,0.004318,0.00425));
#455=CARTESIAN_POINT('',(-0.01905,0.00771525,0.00425));
#456=CARTESIAN_POINT('',(-0.015875,0.004318,0.00425));
#457=CARTESIAN_POINT('',(-0.015875,0.004318,0.));
#458=CARTESIAN_POINT('',(-0.0127,0.004318,0.));
#459=CARTESIAN_POINT('',(-0.0127,0.004318,0.00425));
#460=CARTESIAN_POINT('',(-0.0127,0.004318,0.00425));
#461=CARTESIAN_POINT('',(-0.015875,0.004318,0.00425));
#462=CARTESIAN_POINT('',(-0.0127,-3.46944695195361E-18,0.00425));
#463=CARTESIAN_POINT('',(-0.0127,-3.46944695195361E-18,0.));
#464=CARTESIAN_POINT('',(-0.0127,-0.004318,0.));
#465=CARTESIAN_POINT('',(-0.0127,-0.004318,0.00425));
#466=CARTESIAN_POINT('',(-0.0127,-0.004318,0.00425));
#467=CARTESIAN_POINT('',(-0.0127,-3.46944695195361E-18,0.00425));
#468=CARTESIAN_POINT('',(-0.015875,-0.004318,0.00425));
#469=CARTESIAN_POINT('',(-0.015875,-0.004318,0.));
#470=CARTESIAN_POINT('',(-0.015875,-0.004318,0.00425));
#471=CARTESIAN_POINT('',(0.,2.64401243935913E-19,0.00425));
#472=CARTESIAN_POINT('',(0.,2.64401243935913E-19,0.00425));
#473=CARTESIAN_POINT('',(0.004318,2.64401243935913E-19,0.00425));
#474=CARTESIAN_POINT('',(0.,2.64401243935913E-19,0.));
#475=CARTESIAN_POINT('',(0.004318,2.64401243935913E-19,0.));
#476=CARTESIAN_POINT('',(3.46944695195361E-18,0.,0.00425));
#477=CARTESIAN_POINT('',(3.46944695195361E-18,0.,0.));
#478=MECHANICAL_DESIGN_GEOMETRIC_PRESENTATION_REPRESENTATION('',(#289),
#479);
#479=(
GEOMETRIC_REPRESENTATION_CONTEXT(3)
GLOBAL_UNCERTAINTY_ASSIGNED_CONTEXT((#480))
GLOBAL_UNIT_ASSIGNED_CONTEXT((#483,#482,#481))
REPRESENTATION_CONTEXT('DSCP019-M425','TOP_LEVEL_ASSEMBLY_PART')
);
#480=UNCERTAINTY_MEASURE_WITH_UNIT(LENGTH_MEASURE(5.E-6),#483,
'DISTANCE_ACCURACY_VALUE','Maximum Tolerance applied to model');
#481=(
NAMED_UNIT(*)
SI_UNIT($,.STERADIAN.)
SOLID_ANGLE_UNIT()
);
#482=(
NAMED_UNIT(*)
PLANE_ANGLE_UNIT()
SI_UNIT($,.RADIAN.)
);
#483=(
LENGTH_UNIT()
NAMED_UNIT(*)
SI_UNIT($,.METRE.)
);
#484=PRODUCT_DEFINITION_SHAPE('','',#485);
#485=PRODUCT_DEFINITION('','',#487,#486);
#486=PRODUCT_DEFINITION_CONTEXT('',#493,'design');
#487=PRODUCT_DEFINITION_FORMATION_WITH_SPECIFIED_SOURCE('','',#489,
 .NOT_KNOWN.);
#488=PRODUCT_RELATED_PRODUCT_CATEGORY('','',(#489));
#489=PRODUCT('DSCP019-M425','DSCP019-M425','DSCP019-M425',(#491));
#490=PRODUCT_CATEGORY('','');
#491=PRODUCT_CONTEXT('',#493,'mechanical');
#492=APPLICATION_PROTOCOL_DEFINITION('international standard',
'ap242_managed_model_based_3d_engineering',2011,#493);
#493=APPLICATION_CONTEXT('managed model based 3d engineering');
ENDSEC;
END-ISO-10303-21;
