ISO-10303-21;
HEADER;
/* Generated by software containing ST-Developer
 * from STEP Tools, Inc. (www.steptools.com) 
 */
/* OPTION: using custom renumber hook */

FILE_DESCRIPTION(
/* description */ ('STEP AP242',
'CAx-IF Rec.Pracs.---Representation and Presentation of Product Manufa
cturing Information (PMI)---4.0---2014-10-13',
'CAx-IF Rec.Pracs.---3D Tessellated Geometry---0.4---2014-09-14','2;1'),

/* implementation_level */ '2;1');

FILE_NAME(
/* name */ '6286817d6baec34f0bc31119',
/* time_stamp */ '2022-05-19T17:42:22+00:00',
/* author */ (''),
/* organization */ (''),
/* preprocessor_version */ 'ST-DEVELOPER v18.102',
/* originating_system */ '  ',
/* authorisation */ '  ');

FILE_SCHEMA (('AP242_MANAGED_MODEL_BASED_3D_ENGINEERING_MIM_LF { 1 0 10303 442 1 1 4 }'));
ENDSEC;

DATA;
#10=SHAPE_REPRESENTATION_RELATIONSHIP('','',#217,#11);
#11=ADVANCED_BREP_SHAPE_REPRESENTATION('',(#215),#345);
#12=CYLINDRICAL_SURFACE('',#233,0.004318);
#13=CYLINDRICAL_SURFACE('',#234,0.004318);
#14=CYLINDRICAL_SURFACE('',#235,0.004318);
#15=CIRCLE('',#226,0.004318);
#16=CIRCLE('',#227,0.004318);
#17=CIRCLE('',#228,0.004318);
#18=CIRCLE('',#230,0.004318);
#19=CIRCLE('',#231,0.004318);
#20=CIRCLE('',#232,0.004318);
#21=ORIENTED_EDGE('',*,*,#69,.F.);
#22=ORIENTED_EDGE('',*,*,#70,.F.);
#23=ORIENTED_EDGE('',*,*,#71,.T.);
#24=ORIENTED_EDGE('',*,*,#72,.T.);
#25=ORIENTED_EDGE('',*,*,#73,.F.);
#26=ORIENTED_EDGE('',*,*,#74,.F.);
#27=ORIENTED_EDGE('',*,*,#75,.T.);
#28=ORIENTED_EDGE('',*,*,#70,.T.);
#29=ORIENTED_EDGE('',*,*,#76,.T.);
#30=ORIENTED_EDGE('',*,*,#77,.F.);
#31=ORIENTED_EDGE('',*,*,#78,.F.);
#32=ORIENTED_EDGE('',*,*,#74,.T.);
#33=ORIENTED_EDGE('',*,*,#79,.T.);
#34=ORIENTED_EDGE('',*,*,#80,.F.);
#35=ORIENTED_EDGE('',*,*,#81,.F.);
#36=ORIENTED_EDGE('',*,*,#77,.T.);
#37=ORIENTED_EDGE('',*,*,#82,.T.);
#38=ORIENTED_EDGE('',*,*,#83,.F.);
#39=ORIENTED_EDGE('',*,*,#84,.F.);
#40=ORIENTED_EDGE('',*,*,#80,.T.);
#41=ORIENTED_EDGE('',*,*,#85,.F.);
#42=ORIENTED_EDGE('',*,*,#72,.F.);
#43=ORIENTED_EDGE('',*,*,#86,.T.);
#44=ORIENTED_EDGE('',*,*,#83,.T.);
#45=ORIENTED_EDGE('',*,*,#87,.T.);
#46=ORIENTED_EDGE('',*,*,#88,.T.);
#47=ORIENTED_EDGE('',*,*,#89,.T.);
#48=ORIENTED_EDGE('',*,*,#71,.F.);
#49=ORIENTED_EDGE('',*,*,#75,.F.);
#50=ORIENTED_EDGE('',*,*,#78,.T.);
#51=ORIENTED_EDGE('',*,*,#81,.T.);
#52=ORIENTED_EDGE('',*,*,#84,.T.);
#53=ORIENTED_EDGE('',*,*,#86,.F.);
#54=ORIENTED_EDGE('',*,*,#90,.F.);
#55=ORIENTED_EDGE('',*,*,#91,.F.);
#56=ORIENTED_EDGE('',*,*,#92,.F.);
#57=ORIENTED_EDGE('',*,*,#69,.T.);
#58=ORIENTED_EDGE('',*,*,#85,.T.);
#59=ORIENTED_EDGE('',*,*,#82,.F.);
#60=ORIENTED_EDGE('',*,*,#79,.F.);
#61=ORIENTED_EDGE('',*,*,#76,.F.);
#62=ORIENTED_EDGE('',*,*,#73,.T.);
#63=ORIENTED_EDGE('',*,*,#89,.F.);
#64=ORIENTED_EDGE('',*,*,#92,.T.);
#65=ORIENTED_EDGE('',*,*,#88,.F.);
#66=ORIENTED_EDGE('',*,*,#91,.T.);
#67=ORIENTED_EDGE('',*,*,#87,.F.);
#68=ORIENTED_EDGE('',*,*,#90,.T.);
#69=EDGE_CURVE('',#93,#94,#111,.T.);
#70=EDGE_CURVE('',#95,#93,#112,.T.);
#71=EDGE_CURVE('',#95,#96,#113,.T.);
#72=EDGE_CURVE('',#96,#94,#114,.T.);
#73=EDGE_CURVE('',#97,#93,#115,.T.);
#74=EDGE_CURVE('',#98,#97,#116,.T.);
#75=EDGE_CURVE('',#98,#95,#117,.T.);
#76=EDGE_CURVE('',#97,#99,#118,.T.);
#77=EDGE_CURVE('',#100,#99,#119,.T.);
#78=EDGE_CURVE('',#98,#100,#120,.T.);
#79=EDGE_CURVE('',#99,#101,#121,.T.);
#80=EDGE_CURVE('',#102,#101,#122,.T.);
#81=EDGE_CURVE('',#100,#102,#123,.T.);
#82=EDGE_CURVE('',#101,#103,#124,.T.);
#83=EDGE_CURVE('',#104,#103,#125,.T.);
#84=EDGE_CURVE('',#102,#104,#126,.T.);
#85=EDGE_CURVE('',#94,#103,#127,.T.);
#86=EDGE_CURVE('',#96,#104,#128,.T.);
#87=EDGE_CURVE('',#105,#105,#15,.F.);
#88=EDGE_CURVE('',#106,#106,#16,.F.);
#89=EDGE_CURVE('',#107,#107,#17,.F.);
#90=EDGE_CURVE('',#108,#108,#18,.T.);
#91=EDGE_CURVE('',#109,#109,#19,.T.);
#92=EDGE_CURVE('',#110,#110,#20,.T.);
#93=VERTEX_POINT('',#293);
#94=VERTEX_POINT('',#294);
#95=VERTEX_POINT('',#296);
#96=VERTEX_POINT('',#298);
#97=VERTEX_POINT('',#302);
#98=VERTEX_POINT('',#304);
#99=VERTEX_POINT('',#308);
#100=VERTEX_POINT('',#310);
#101=VERTEX_POINT('',#314);
#102=VERTEX_POINT('',#316);
#103=VERTEX_POINT('',#320);
#104=VERTEX_POINT('',#322);
#105=VERTEX_POINT('',#329);
#106=VERTEX_POINT('',#331);
#107=VERTEX_POINT('',#333);
#108=VERTEX_POINT('',#336);
#109=VERTEX_POINT('',#338);
#110=VERTEX_POINT('',#340);
#111=LINE('',#292,#129);
#112=LINE('',#295,#130);
#113=LINE('',#297,#131);
#114=LINE('',#299,#132);
#115=LINE('',#301,#133);
#116=LINE('',#303,#134);
#117=LINE('',#305,#135);
#118=LINE('',#307,#136);
#119=LINE('',#309,#137);
#120=LINE('',#311,#138);
#121=LINE('',#313,#139);
#122=LINE('',#315,#140);
#123=LINE('',#317,#141);
#124=LINE('',#319,#142);
#125=LINE('',#321,#143);
#126=LINE('',#323,#144);
#127=LINE('',#325,#145);
#128=LINE('',#326,#146);
#129=VECTOR('',#240,1.);
#130=VECTOR('',#241,1.);
#131=VECTOR('',#242,1.);
#132=VECTOR('',#243,1.);
#133=VECTOR('',#246,1.);
#134=VECTOR('',#247,1.);
#135=VECTOR('',#248,1.);
#136=VECTOR('',#251,1.);
#137=VECTOR('',#252,1.);
#138=VECTOR('',#253,1.);
#139=VECTOR('',#256,1.);
#140=VECTOR('',#257,1.);
#141=VECTOR('',#258,1.);
#142=VECTOR('',#261,1.);
#143=VECTOR('',#262,1.);
#144=VECTOR('',#263,1.);
#145=VECTOR('',#266,1.);
#146=VECTOR('',#267,1.);
#147=EDGE_LOOP('',(#21,#22,#23,#24));
#148=EDGE_LOOP('',(#25,#26,#27,#28));
#149=EDGE_LOOP('',(#29,#30,#31,#32));
#150=EDGE_LOOP('',(#33,#34,#35,#36));
#151=EDGE_LOOP('',(#37,#38,#39,#40));
#152=EDGE_LOOP('',(#41,#42,#43,#44));
#153=EDGE_LOOP('',(#45));
#154=EDGE_LOOP('',(#46));
#155=EDGE_LOOP('',(#47));
#156=EDGE_LOOP('',(#48,#49,#50,#51,#52,#53));
#157=EDGE_LOOP('',(#54));
#158=EDGE_LOOP('',(#55));
#159=EDGE_LOOP('',(#56));
#160=EDGE_LOOP('',(#57,#58,#59,#60,#61,#62));
#161=EDGE_LOOP('',(#63));
#162=EDGE_LOOP('',(#64));
#163=EDGE_LOOP('',(#65));
#164=EDGE_LOOP('',(#66));
#165=EDGE_LOOP('',(#67));
#166=EDGE_LOOP('',(#68));
#167=FACE_BOUND('',#147,.T.);
#168=FACE_BOUND('',#148,.T.);
#169=FACE_BOUND('',#149,.T.);
#170=FACE_BOUND('',#150,.T.);
#171=FACE_BOUND('',#151,.T.);
#172=FACE_BOUND('',#152,.T.);
#173=FACE_BOUND('',#153,.T.);
#174=FACE_BOUND('',#154,.T.);
#175=FACE_BOUND('',#155,.T.);
#176=FACE_BOUND('',#156,.T.);
#177=FACE_BOUND('',#157,.T.);
#178=FACE_BOUND('',#158,.T.);
#179=FACE_BOUND('',#159,.T.);
#180=FACE_BOUND('',#160,.T.);
#181=FACE_BOUND('',#161,.T.);
#182=FACE_BOUND('',#162,.T.);
#183=FACE_BOUND('',#163,.T.);
#184=FACE_BOUND('',#164,.T.);
#185=FACE_BOUND('',#165,.T.);
#186=FACE_BOUND('',#166,.T.);
#187=PLANE('',#219);
#188=PLANE('',#220);
#189=PLANE('',#221);
#190=PLANE('',#222);
#191=PLANE('',#223);
#192=PLANE('',#224);
#193=PLANE('',#225);
#194=PLANE('',#229);
#195=ADVANCED_FACE('',(#167),#187,.T.);
#196=ADVANCED_FACE('',(#168),#188,.T.);
#197=ADVANCED_FACE('',(#169),#189,.F.);
#198=ADVANCED_FACE('',(#170),#190,.F.);
#199=ADVANCED_FACE('',(#171),#191,.F.);
#200=ADVANCED_FACE('',(#172),#192,.T.);
#201=ADVANCED_FACE('',(#173,#174,#175,#176),#193,.T.);
#202=ADVANCED_FACE('',(#177,#178,#179,#180),#194,.F.);
#203=ADVANCED_FACE('',(#181,#182),#12,.F.);
#204=ADVANCED_FACE('',(#183,#184),#13,.F.);
#205=ADVANCED_FACE('',(#185,#186),#14,.F.);
#206=CLOSED_SHELL('',(#195,#196,#197,#198,#199,#200,#201,#202,#203,#204,
#205));
#207=STYLED_ITEM('',(#208),#215);
#208=PRESENTATION_STYLE_ASSIGNMENT((#209));
#209=SURFACE_STYLE_USAGE(.BOTH.,#210);
#210=SURFACE_SIDE_STYLE('',(#211));
#211=SURFACE_STYLE_FILL_AREA(#212);
#212=FILL_AREA_STYLE('',(#213));
#213=FILL_AREA_STYLE_COLOUR('',#214);
#214=COLOUR_RGB('',0.498039215686275,0.498039215686275,0.498039215686275);
#215=MANIFOLD_SOLID_BREP('DSCP028-M450',#206);
#216=SHAPE_DEFINITION_REPRESENTATION(#350,#217);
#217=SHAPE_REPRESENTATION('DSCP028-M450',(#218),#345);
#218=AXIS2_PLACEMENT_3D('',#290,#236,#237);
#219=AXIS2_PLACEMENT_3D('',#291,#238,#239);
#220=AXIS2_PLACEMENT_3D('',#300,#244,#245);
#221=AXIS2_PLACEMENT_3D('',#306,#249,#250);
#222=AXIS2_PLACEMENT_3D('',#312,#254,#255);
#223=AXIS2_PLACEMENT_3D('',#318,#259,#260);
#224=AXIS2_PLACEMENT_3D('',#324,#264,#265);
#225=AXIS2_PLACEMENT_3D('',#327,#268,#269);
#226=AXIS2_PLACEMENT_3D('',#328,#270,#271);
#227=AXIS2_PLACEMENT_3D('',#330,#272,#273);
#228=AXIS2_PLACEMENT_3D('',#332,#274,#275);
#229=AXIS2_PLACEMENT_3D('',#334,#276,#277);
#230=AXIS2_PLACEMENT_3D('',#335,#278,#279);
#231=AXIS2_PLACEMENT_3D('',#337,#280,#281);
#232=AXIS2_PLACEMENT_3D('',#339,#282,#283);
#233=AXIS2_PLACEMENT_3D('',#341,#284,#285);
#234=AXIS2_PLACEMENT_3D('',#342,#286,#287);
#235=AXIS2_PLACEMENT_3D('',#343,#288,#289);
#236=DIRECTION('',(0.,0.,1.));
#237=DIRECTION('',(1.,0.,0.));
#238=DIRECTION('',(-1.,0.,0.));
#239=DIRECTION('',(0.,0.,1.));
#240=DIRECTION('',(0.,1.,0.));
#241=DIRECTION('',(0.,0.,-1.));
#242=DIRECTION('',(0.,1.,0.));
#243=DIRECTION('',(0.,0.,-1.));
#244=DIRECTION('',(1.2569852731584E-16,-1.,0.));
#245=DIRECTION('',(1.,1.2569852731584E-16,0.));
#246=DIRECTION('',(-1.,-1.2569852731584E-16,0.));
#247=DIRECTION('',(0.,0.,-1.));
#248=DIRECTION('',(-1.,-1.2569852731584E-16,0.));
#249=DIRECTION('',(-1.,0.,0.));
#250=DIRECTION('',(0.,0.,1.));
#251=DIRECTION('',(0.,1.,0.));
#252=DIRECTION('',(0.,0.,-1.));
#253=DIRECTION('',(0.,1.,0.));
#254=DIRECTION('',(-0.316227766016838,-0.948683298050514,0.));
#255=DIRECTION('',(0.948683298050514,-0.316227766016838,0.));
#256=DIRECTION('',(-0.948683298050514,0.316227766016838,0.));
#257=DIRECTION('',(0.,0.,-1.));
#258=DIRECTION('',(-0.948683298050514,0.316227766016838,0.));
#259=DIRECTION('',(1.6069694080378E-16,-1.,0.));
#260=DIRECTION('',(1.,1.6069694080378E-16,0.));
#261=DIRECTION('',(-1.,-1.6069694080378E-16,0.));
#262=DIRECTION('',(0.,0.,-1.));
#263=DIRECTION('',(-1.,-1.6069694080378E-16,0.));
#264=DIRECTION('',(-0.316227766016838,0.948683298050514,0.));
#265=DIRECTION('',(-0.948683298050514,-0.316227766016838,0.));
#266=DIRECTION('',(0.948683298050514,0.316227766016838,0.));
#267=DIRECTION('',(0.948683298050514,0.316227766016838,0.));
#268=DIRECTION('',(0.,0.,1.));
#269=DIRECTION('',(1.,0.,0.));
#270=DIRECTION('',(0.,0.,1.));
#271=DIRECTION('',(1.,0.,0.));
#272=DIRECTION('',(0.,0.,1.));
#273=DIRECTION('',(1.,0.,0.));
#274=DIRECTION('',(0.,0.,1.));
#275=DIRECTION('',(1.,0.,0.));
#276=DIRECTION('',(0.,0.,1.));
#277=DIRECTION('',(1.,0.,0.));
#278=DIRECTION('',(0.,0.,-1.));
#279=DIRECTION('',(-1.,0.,0.));
#280=DIRECTION('',(0.,0.,-1.));
#281=DIRECTION('',(-1.,0.,0.));
#282=DIRECTION('',(0.,0.,-1.));
#283=DIRECTION('',(-1.,0.,0.));
#284=DIRECTION('',(0.,0.,-1.));
#285=DIRECTION('',(-1.,0.,0.));
#286=DIRECTION('',(0.,0.,-1.));
#287=DIRECTION('',(-1.,0.,0.));
#288=DIRECTION('',(0.,0.,-1.));
#289=DIRECTION('',(-1.,0.,0.));
#290=CARTESIAN_POINT('',(0.,0.,0.));
#291=CARTESIAN_POINT('',(-0.020701,-0.001651,0.0045));
#292=CARTESIAN_POINT('',(-0.020701,-0.001651,0.));
#293=CARTESIAN_POINT('',(-0.020701,-0.013462,0.));
#294=CARTESIAN_POINT('',(-0.020701,0.01016,0.));
#295=CARTESIAN_POINT('',(-0.020701,-0.013462,0.0045));
#296=CARTESIAN_POINT('',(-0.020701,-0.013462,0.0045));
#297=CARTESIAN_POINT('',(-0.020701,-0.001651,0.0045));
#298=CARTESIAN_POINT('',(-0.020701,0.01016,0.0045));
#299=CARTESIAN_POINT('',(-0.020701,0.01016,0.0045));
#300=CARTESIAN_POINT('',(0.,-0.013462,0.0045));
#301=CARTESIAN_POINT('',(0.,-0.013462,0.));
#302=CARTESIAN_POINT('',(0.020701,-0.013462,0.));
#303=CARTESIAN_POINT('',(0.020701,-0.013462,0.0045));
#304=CARTESIAN_POINT('',(0.020701,-0.013462,0.0045));
#305=CARTESIAN_POINT('',(0.,-0.013462,0.0045));
#306=CARTESIAN_POINT('',(0.020701,-0.001651,0.0045));
#307=CARTESIAN_POINT('',(0.020701,-0.001651,0.));
#308=CARTESIAN_POINT('',(0.020701,0.01016,0.));
#309=CARTESIAN_POINT('',(0.020701,0.01016,0.0045));
#310=CARTESIAN_POINT('',(0.020701,0.01016,0.0045));
#311=CARTESIAN_POINT('',(0.020701,-0.001651,0.0045));
#312=CARTESIAN_POINT('',(0.015748,0.011811,0.0045));
#313=CARTESIAN_POINT('',(0.015748,0.011811,0.));
#314=CARTESIAN_POINT('',(0.010795,0.013462,0.));
#315=CARTESIAN_POINT('',(0.010795,0.013462,0.0045));
#316=CARTESIAN_POINT('',(0.010795,0.013462,0.0045));
#317=CARTESIAN_POINT('',(0.015748,0.011811,0.0045));
#318=CARTESIAN_POINT('',(-1.7347234759768E-18,0.013462,0.0045));
#319=CARTESIAN_POINT('',(-1.7347234759768E-18,0.013462,0.));
#320=CARTESIAN_POINT('',(-0.010795,0.013462,0.));
#321=CARTESIAN_POINT('',(-0.010795,0.013462,0.0045));
#322=CARTESIAN_POINT('',(-0.010795,0.013462,0.0045));
#323=CARTESIAN_POINT('',(-1.7347234759768E-18,0.013462,0.0045));
#324=CARTESIAN_POINT('',(-0.015748,0.011811,0.0045));
#325=CARTESIAN_POINT('',(-0.015748,0.011811,0.));
#326=CARTESIAN_POINT('',(-0.015748,0.011811,0.0045));
#327=CARTESIAN_POINT('',(0.,-1.7347234759768E-18,0.0045));
#328=CARTESIAN_POINT('',(0.012827,-0.001016,0.0045));
#329=CARTESIAN_POINT('',(0.017145,-0.001016,0.0045));
#330=CARTESIAN_POINT('',(0.001397,-0.001016,0.0045));
#331=CARTESIAN_POINT('',(0.005715,-0.001016,0.0045));
#332=CARTESIAN_POINT('',(-0.010033,-0.001016,0.0045));
#333=CARTESIAN_POINT('',(-0.005715,-0.001016,0.0045));
#334=CARTESIAN_POINT('',(0.,-1.7347234759768E-18,0.));
#335=CARTESIAN_POINT('',(0.012827,-0.001016,0.));
#336=CARTESIAN_POINT('',(0.008509,-0.001016,0.));
#337=CARTESIAN_POINT('',(0.001397,-0.001016,0.));
#338=CARTESIAN_POINT('',(-0.002921,-0.001016,0.));
#339=CARTESIAN_POINT('',(-0.010033,-0.001016,0.));
#340=CARTESIAN_POINT('',(-0.014351,-0.001016,0.));
#341=CARTESIAN_POINT('',(-0.010033,-0.001016,0.0508883598992874));
#342=CARTESIAN_POINT('',(0.001397,-0.001016,0.0508883598992874));
#343=CARTESIAN_POINT('',(0.012827,-0.001016,0.0508883598992874));
#344=MECHANICAL_DESIGN_GEOMETRIC_PRESENTATION_REPRESENTATION('',(#207),
#345);
#345=(
GEOMETRIC_REPRESENTATION_CONTEXT(3)
GLOBAL_UNCERTAINTY_ASSIGNED_CONTEXT((#346))
GLOBAL_UNIT_ASSIGNED_CONTEXT((#349,#348,#347))
REPRESENTATION_CONTEXT('DSCP028-M450','TOP_LEVEL_ASSEMBLY_PART')
);
#346=UNCERTAINTY_MEASURE_WITH_UNIT(LENGTH_MEASURE(5.E-6),#349,
'DISTANCE_ACCURACY_VALUE','Maximum Tolerance applied to model');
#347=(
NAMED_UNIT(*)
SI_UNIT($,.STERADIAN.)
SOLID_ANGLE_UNIT()
);
#348=(
NAMED_UNIT(*)
PLANE_ANGLE_UNIT()
SI_UNIT($,.RADIAN.)
);
#349=(
LENGTH_UNIT()
NAMED_UNIT(*)
SI_UNIT($,.METRE.)
);
#350=PRODUCT_DEFINITION_SHAPE('','',#351);
#351=PRODUCT_DEFINITION('','',#353,#352);
#352=PRODUCT_DEFINITION_CONTEXT('',#359,'design');
#353=PRODUCT_DEFINITION_FORMATION_WITH_SPECIFIED_SOURCE('','',#355,
 .NOT_KNOWN.);
#354=PRODUCT_RELATED_PRODUCT_CATEGORY('','',(#355));
#355=PRODUCT('DSCP028-M450','DSCP028-M450','DSCP028-M450',(#357));
#356=PRODUCT_CATEGORY('','');
#357=PRODUCT_CONTEXT('',#359,'mechanical');
#358=APPLICATION_PROTOCOL_DEFINITION('international standard',
'ap242_managed_model_based_3d_engineering',2011,#359);
#359=APPLICATION_CONTEXT('managed model based 3d engineering');
ENDSEC;
END-ISO-10303-21;
