ISO-10303-21;
HEADER;
/* Generated by software containing ST-Developer
 * from STEP Tools, Inc. (www.steptools.com) 
 */
/* OPTION: using custom renumber hook */

FILE_DESCRIPTION(
/* description */ ('STEP AP242',
'CAx-IF Rec.Pracs.---Representation and Presentation of Product Manufa
cturing Information (PMI)---4.0---2014-10-13',
'CAx-IF Rec.Pracs.---3D Tessellated Geometry---0.4---2014-09-14','2;1'),

/* implementation_level */ '2;1');

FILE_NAME(
/* name */ '629fa9d1cf28193d4d9db22d',
/* time_stamp */ '2022-06-07T19:41:05+00:00',
/* author */ (''),
/* organization */ (''),
/* preprocessor_version */ 'ST-DEVELOPER v18.102',
/* originating_system */ '  ',
/* authorisation */ '  ');

FILE_SCHEMA (('AP242_MANAGED_MODEL_BASED_3D_ENGINEERING_MIM_LF { 1 0 10303 442 1 1 4 }'));
ENDSEC;

DATA;
#10=SHAPE_REPRESENTATION_RELATIONSHIP('','',#235,#11);
#11=ADVANCED_BREP_SHAPE_REPRESENTATION('',(#233),#381);
#12=CIRCLE('',#241,0.00525);
#13=CIRCLE('',#242,0.00525);
#14=CIRCLE('',#244,0.00525);
#15=CIRCLE('',#245,0.00525);
#16=CIRCLE('',#247,0.00525);
#17=CIRCLE('',#248,0.00525);
#18=CIRCLE('',#250,0.00525);
#19=CIRCLE('',#251,0.00525);
#20=CIRCLE('',#253,0.00525);
#21=CIRCLE('',#254,0.00525);
#22=CIRCLE('',#256,0.00525);
#23=CIRCLE('',#257,0.00525);
#24=CYLINDRICAL_SURFACE('',#240,0.00525);
#25=CYLINDRICAL_SURFACE('',#243,0.00525);
#26=CYLINDRICAL_SURFACE('',#246,0.00525);
#27=CYLINDRICAL_SURFACE('',#249,0.00525);
#28=CYLINDRICAL_SURFACE('',#252,0.00525);
#29=CYLINDRICAL_SURFACE('',#255,0.00525);
#30=ORIENTED_EDGE('',*,*,#78,.F.);
#31=ORIENTED_EDGE('',*,*,#79,.F.);
#32=ORIENTED_EDGE('',*,*,#80,.T.);
#33=ORIENTED_EDGE('',*,*,#81,.T.);
#34=ORIENTED_EDGE('',*,*,#82,.T.);
#35=ORIENTED_EDGE('',*,*,#83,.F.);
#36=ORIENTED_EDGE('',*,*,#84,.F.);
#37=ORIENTED_EDGE('',*,*,#79,.T.);
#38=ORIENTED_EDGE('',*,*,#85,.T.);
#39=ORIENTED_EDGE('',*,*,#86,.F.);
#40=ORIENTED_EDGE('',*,*,#87,.F.);
#41=ORIENTED_EDGE('',*,*,#83,.T.);
#42=ORIENTED_EDGE('',*,*,#88,.T.);
#43=ORIENTED_EDGE('',*,*,#89,.F.);
#44=ORIENTED_EDGE('',*,*,#90,.T.);
#45=ORIENTED_EDGE('',*,*,#91,.F.);
#46=ORIENTED_EDGE('',*,*,#92,.T.);
#47=ORIENTED_EDGE('',*,*,#93,.F.);
#48=ORIENTED_EDGE('',*,*,#94,.T.);
#49=ORIENTED_EDGE('',*,*,#95,.F.);
#50=ORIENTED_EDGE('',*,*,#96,.T.);
#51=ORIENTED_EDGE('',*,*,#97,.F.);
#52=ORIENTED_EDGE('',*,*,#98,.T.);
#53=ORIENTED_EDGE('',*,*,#99,.F.);
#54=ORIENTED_EDGE('',*,*,#100,.F.);
#55=ORIENTED_EDGE('',*,*,#81,.F.);
#56=ORIENTED_EDGE('',*,*,#101,.T.);
#57=ORIENTED_EDGE('',*,*,#86,.T.);
#58=ORIENTED_EDGE('',*,*,#98,.F.);
#59=ORIENTED_EDGE('',*,*,#96,.F.);
#60=ORIENTED_EDGE('',*,*,#94,.F.);
#61=ORIENTED_EDGE('',*,*,#92,.F.);
#62=ORIENTED_EDGE('',*,*,#90,.F.);
#63=ORIENTED_EDGE('',*,*,#88,.F.);
#64=ORIENTED_EDGE('',*,*,#80,.F.);
#65=ORIENTED_EDGE('',*,*,#84,.T.);
#66=ORIENTED_EDGE('',*,*,#87,.T.);
#67=ORIENTED_EDGE('',*,*,#101,.F.);
#68=ORIENTED_EDGE('',*,*,#99,.T.);
#69=ORIENTED_EDGE('',*,*,#97,.T.);
#70=ORIENTED_EDGE('',*,*,#95,.T.);
#71=ORIENTED_EDGE('',*,*,#93,.T.);
#72=ORIENTED_EDGE('',*,*,#91,.T.);
#73=ORIENTED_EDGE('',*,*,#89,.T.);
#74=ORIENTED_EDGE('',*,*,#78,.T.);
#75=ORIENTED_EDGE('',*,*,#100,.T.);
#76=ORIENTED_EDGE('',*,*,#85,.F.);
#77=ORIENTED_EDGE('',*,*,#82,.F.);
#78=EDGE_CURVE('',#102,#103,#122,.T.);
#79=EDGE_CURVE('',#104,#102,#123,.T.);
#80=EDGE_CURVE('',#104,#105,#124,.T.);
#81=EDGE_CURVE('',#105,#103,#125,.T.);
#82=EDGE_CURVE('',#102,#106,#126,.T.);
#83=EDGE_CURVE('',#107,#106,#127,.T.);
#84=EDGE_CURVE('',#104,#107,#128,.T.);
#85=EDGE_CURVE('',#106,#108,#129,.T.);
#86=EDGE_CURVE('',#109,#108,#130,.T.);
#87=EDGE_CURVE('',#107,#109,#131,.T.);
#88=EDGE_CURVE('',#110,#110,#12,.T.);
#89=EDGE_CURVE('',#111,#111,#13,.T.);
#90=EDGE_CURVE('',#112,#112,#14,.T.);
#91=EDGE_CURVE('',#113,#113,#15,.T.);
#92=EDGE_CURVE('',#114,#114,#16,.T.);
#93=EDGE_CURVE('',#115,#115,#17,.T.);
#94=EDGE_CURVE('',#116,#116,#18,.T.);
#95=EDGE_CURVE('',#117,#117,#19,.T.);
#96=EDGE_CURVE('',#118,#118,#20,.T.);
#97=EDGE_CURVE('',#119,#119,#21,.T.);
#98=EDGE_CURVE('',#120,#120,#22,.T.);
#99=EDGE_CURVE('',#121,#121,#23,.T.);
#100=EDGE_CURVE('',#103,#108,#132,.T.);
#101=EDGE_CURVE('',#105,#109,#133,.T.);
#102=VERTEX_POINT('',#326);
#103=VERTEX_POINT('',#327);
#104=VERTEX_POINT('',#329);
#105=VERTEX_POINT('',#331);
#106=VERTEX_POINT('',#335);
#107=VERTEX_POINT('',#337);
#108=VERTEX_POINT('',#341);
#109=VERTEX_POINT('',#343);
#110=VERTEX_POINT('',#347);
#111=VERTEX_POINT('',#349);
#112=VERTEX_POINT('',#352);
#113=VERTEX_POINT('',#354);
#114=VERTEX_POINT('',#357);
#115=VERTEX_POINT('',#359);
#116=VERTEX_POINT('',#362);
#117=VERTEX_POINT('',#364);
#118=VERTEX_POINT('',#367);
#119=VERTEX_POINT('',#369);
#120=VERTEX_POINT('',#372);
#121=VERTEX_POINT('',#374);
#122=LINE('',#325,#134);
#123=LINE('',#328,#135);
#124=LINE('',#330,#136);
#125=LINE('',#332,#137);
#126=LINE('',#334,#138);
#127=LINE('',#336,#139);
#128=LINE('',#338,#140);
#129=LINE('',#340,#141);
#130=LINE('',#342,#142);
#131=LINE('',#344,#143);
#132=LINE('',#376,#144);
#133=LINE('',#377,#145);
#134=VECTOR('',#265,1.);
#135=VECTOR('',#266,1.);
#136=VECTOR('',#267,1.);
#137=VECTOR('',#268,1.);
#138=VECTOR('',#271,1.);
#139=VECTOR('',#272,1.);
#140=VECTOR('',#273,1.);
#141=VECTOR('',#276,1.);
#142=VECTOR('',#277,1.);
#143=VECTOR('',#278,1.);
#144=VECTOR('',#317,1.);
#145=VECTOR('',#318,1.);
#146=EDGE_LOOP('',(#30,#31,#32,#33));
#147=EDGE_LOOP('',(#34,#35,#36,#37));
#148=EDGE_LOOP('',(#38,#39,#40,#41));
#149=EDGE_LOOP('',(#42));
#150=EDGE_LOOP('',(#43));
#151=EDGE_LOOP('',(#44));
#152=EDGE_LOOP('',(#45));
#153=EDGE_LOOP('',(#46));
#154=EDGE_LOOP('',(#47));
#155=EDGE_LOOP('',(#48));
#156=EDGE_LOOP('',(#49));
#157=EDGE_LOOP('',(#50));
#158=EDGE_LOOP('',(#51));
#159=EDGE_LOOP('',(#52));
#160=EDGE_LOOP('',(#53));
#161=EDGE_LOOP('',(#54,#55,#56,#57));
#162=EDGE_LOOP('',(#58));
#163=EDGE_LOOP('',(#59));
#164=EDGE_LOOP('',(#60));
#165=EDGE_LOOP('',(#61));
#166=EDGE_LOOP('',(#62));
#167=EDGE_LOOP('',(#63));
#168=EDGE_LOOP('',(#64,#65,#66,#67));
#169=EDGE_LOOP('',(#68));
#170=EDGE_LOOP('',(#69));
#171=EDGE_LOOP('',(#70));
#172=EDGE_LOOP('',(#71));
#173=EDGE_LOOP('',(#72));
#174=EDGE_LOOP('',(#73));
#175=EDGE_LOOP('',(#74,#75,#76,#77));
#176=FACE_BOUND('',#146,.T.);
#177=FACE_BOUND('',#147,.T.);
#178=FACE_BOUND('',#148,.T.);
#179=FACE_BOUND('',#149,.T.);
#180=FACE_BOUND('',#150,.T.);
#181=FACE_BOUND('',#151,.T.);
#182=FACE_BOUND('',#152,.T.);
#183=FACE_BOUND('',#153,.T.);
#184=FACE_BOUND('',#154,.T.);
#185=FACE_BOUND('',#155,.T.);
#186=FACE_BOUND('',#156,.T.);
#187=FACE_BOUND('',#157,.T.);
#188=FACE_BOUND('',#158,.T.);
#189=FACE_BOUND('',#159,.T.);
#190=FACE_BOUND('',#160,.T.);
#191=FACE_BOUND('',#161,.T.);
#192=FACE_BOUND('',#162,.T.);
#193=FACE_BOUND('',#163,.T.);
#194=FACE_BOUND('',#164,.T.);
#195=FACE_BOUND('',#165,.T.);
#196=FACE_BOUND('',#166,.T.);
#197=FACE_BOUND('',#167,.T.);
#198=FACE_BOUND('',#168,.T.);
#199=FACE_BOUND('',#169,.T.);
#200=FACE_BOUND('',#170,.T.);
#201=FACE_BOUND('',#171,.T.);
#202=FACE_BOUND('',#172,.T.);
#203=FACE_BOUND('',#173,.T.);
#204=FACE_BOUND('',#174,.T.);
#205=FACE_BOUND('',#175,.T.);
#206=PLANE('',#237);
#207=PLANE('',#238);
#208=PLANE('',#239);
#209=PLANE('',#258);
#210=PLANE('',#259);
#211=PLANE('',#260);
#212=ADVANCED_FACE('',(#176),#206,.T.);
#213=ADVANCED_FACE('',(#177),#207,.F.);
#214=ADVANCED_FACE('',(#178),#208,.F.);
#215=ADVANCED_FACE('',(#179,#180),#24,.F.);
#216=ADVANCED_FACE('',(#181,#182),#25,.F.);
#217=ADVANCED_FACE('',(#183,#184),#26,.F.);
#218=ADVANCED_FACE('',(#185,#186),#27,.F.);
#219=ADVANCED_FACE('',(#187,#188),#28,.F.);
#220=ADVANCED_FACE('',(#189,#190),#29,.F.);
#221=ADVANCED_FACE('',(#191),#209,.T.);
#222=ADVANCED_FACE('',(#192,#193,#194,#195,#196,#197,#198),#210,.T.);
#223=ADVANCED_FACE('',(#199,#200,#201,#202,#203,#204,#205),#211,.F.);
#224=CLOSED_SHELL('',(#212,#213,#214,#215,#216,#217,#218,#219,#220,#221,
#222,#223));
#225=STYLED_ITEM('',(#226),#233);
#226=PRESENTATION_STYLE_ASSIGNMENT((#227));
#227=SURFACE_STYLE_USAGE(.BOTH.,#228);
#228=SURFACE_SIDE_STYLE('',(#229));
#229=SURFACE_STYLE_FILL_AREA(#230);
#230=FILL_AREA_STYLE('',(#231));
#231=FILL_AREA_STYLE_COLOUR('',#232);
#232=COLOUR_RGB('',0.498039215686275,0.498039215686275,0.498039215686275);
#233=MANIFOLD_SOLID_BREP('DSCP053-M440',#224);
#234=SHAPE_DEFINITION_REPRESENTATION(#386,#235);
#235=SHAPE_REPRESENTATION('DSCP053-M440',(#236),#381);
#236=AXIS2_PLACEMENT_3D('',#323,#261,#262);
#237=AXIS2_PLACEMENT_3D('',#324,#263,#264);
#238=AXIS2_PLACEMENT_3D('',#333,#269,#270);
#239=AXIS2_PLACEMENT_3D('',#339,#274,#275);
#240=AXIS2_PLACEMENT_3D('',#345,#279,#280);
#241=AXIS2_PLACEMENT_3D('',#346,#281,#282);
#242=AXIS2_PLACEMENT_3D('',#348,#283,#284);
#243=AXIS2_PLACEMENT_3D('',#350,#285,#286);
#244=AXIS2_PLACEMENT_3D('',#351,#287,#288);
#245=AXIS2_PLACEMENT_3D('',#353,#289,#290);
#246=AXIS2_PLACEMENT_3D('',#355,#291,#292);
#247=AXIS2_PLACEMENT_3D('',#356,#293,#294);
#248=AXIS2_PLACEMENT_3D('',#358,#295,#296);
#249=AXIS2_PLACEMENT_3D('',#360,#297,#298);
#250=AXIS2_PLACEMENT_3D('',#361,#299,#300);
#251=AXIS2_PLACEMENT_3D('',#363,#301,#302);
#252=AXIS2_PLACEMENT_3D('',#365,#303,#304);
#253=AXIS2_PLACEMENT_3D('',#366,#305,#306);
#254=AXIS2_PLACEMENT_3D('',#368,#307,#308);
#255=AXIS2_PLACEMENT_3D('',#370,#309,#310);
#256=AXIS2_PLACEMENT_3D('',#371,#311,#312);
#257=AXIS2_PLACEMENT_3D('',#373,#313,#314);
#258=AXIS2_PLACEMENT_3D('',#375,#315,#316);
#259=AXIS2_PLACEMENT_3D('',#378,#319,#320);
#260=AXIS2_PLACEMENT_3D('',#379,#321,#322);
#261=DIRECTION('',(0.,0.,1.));
#262=DIRECTION('',(1.,0.,0.));
#263=DIRECTION('',(1.10141173077892E-16,-1.,0.));
#264=DIRECTION('',(1.,1.10141173077892E-16,0.));
#265=DIRECTION('',(-1.,-1.10141173077892E-16,0.));
#266=DIRECTION('',(0.,0.,-1.));
#267=DIRECTION('',(-1.,-1.10141173077892E-16,0.));
#268=DIRECTION('',(0.,0.,-1.));
#269=DIRECTION('',(-1.,-1.38777878078144E-16,0.));
#270=DIRECTION('',(1.38777878078144E-16,-1.,0.));
#271=DIRECTION('',(-1.38777878078144E-16,1.,0.));
#272=DIRECTION('',(0.,0.,-1.));
#273=DIRECTION('',(-1.38777878078144E-16,1.,0.));
#274=DIRECTION('',(1.10141173077892E-16,-1.,0.));
#275=DIRECTION('',(1.,1.10141173077892E-16,0.));
#276=DIRECTION('',(-1.,-1.10141173077892E-16,0.));
#277=DIRECTION('',(0.,0.,-1.));
#278=DIRECTION('',(-1.,-1.10141173077892E-16,0.));
#279=DIRECTION('',(0.,0.,-1.));
#280=DIRECTION('',(-1.,0.,0.));
#281=DIRECTION('',(0.,0.,1.));
#282=DIRECTION('',(1.,0.,0.));
#283=DIRECTION('',(0.,0.,1.));
#284=DIRECTION('',(1.,0.,0.));
#285=DIRECTION('',(0.,0.,-1.));
#286=DIRECTION('',(-1.,0.,0.));
#287=DIRECTION('',(0.,0.,1.));
#288=DIRECTION('',(1.,0.,0.));
#289=DIRECTION('',(0.,0.,1.));
#290=DIRECTION('',(1.,0.,0.));
#291=DIRECTION('',(0.,0.,-1.));
#292=DIRECTION('',(-1.,0.,0.));
#293=DIRECTION('',(0.,0.,1.));
#294=DIRECTION('',(1.,0.,0.));
#295=DIRECTION('',(0.,0.,1.));
#296=DIRECTION('',(1.,0.,0.));
#297=DIRECTION('',(0.,0.,-1.));
#298=DIRECTION('',(-1.,0.,0.));
#299=DIRECTION('',(0.,0.,1.));
#300=DIRECTION('',(1.,0.,0.));
#301=DIRECTION('',(0.,0.,1.));
#302=DIRECTION('',(1.,0.,0.));
#303=DIRECTION('',(0.,0.,-1.));
#304=DIRECTION('',(-1.,0.,0.));
#305=DIRECTION('',(0.,0.,1.));
#306=DIRECTION('',(1.,0.,0.));
#307=DIRECTION('',(0.,0.,1.));
#308=DIRECTION('',(1.,0.,0.));
#309=DIRECTION('',(0.,0.,-1.));
#310=DIRECTION('',(-1.,0.,0.));
#311=DIRECTION('',(0.,0.,1.));
#312=DIRECTION('',(1.,0.,0.));
#313=DIRECTION('',(0.,0.,1.));
#314=DIRECTION('',(1.,0.,0.));
#315=DIRECTION('',(-1.,-1.38777878078145E-16,0.));
#316=DIRECTION('',(1.38777878078145E-16,-1.,0.));
#317=DIRECTION('',(-1.38777878078145E-16,1.,0.));
#318=DIRECTION('',(-1.38777878078145E-16,1.,0.));
#319=DIRECTION('',(0.,0.,1.));
#320=DIRECTION('',(1.,0.,0.));
#321=DIRECTION('',(0.,0.,1.));
#322=DIRECTION('',(1.,0.,0.));
#323=CARTESIAN_POINT('',(0.,0.,0.));
#324=CARTESIAN_POINT('',(0.,-0.025,0.0044));
#325=CARTESIAN_POINT('',(0.,-0.025,0.));
#326=CARTESIAN_POINT('',(0.0315,-0.025,0.));
#327=CARTESIAN_POINT('',(-0.0315,-0.025,0.));
#328=CARTESIAN_POINT('',(0.0315,-0.025,0.0044));
#329=CARTESIAN_POINT('',(0.0315,-0.025,0.0044));
#330=CARTESIAN_POINT('',(0.,-0.025,0.0044));
#331=CARTESIAN_POINT('',(-0.0315,-0.025,0.0044));
#332=CARTESIAN_POINT('',(-0.0315,-0.025,0.0044));
#333=CARTESIAN_POINT('',(0.0315,8.67361737988404E-18,0.0044));
#334=CARTESIAN_POINT('',(0.0315,8.67361737988404E-18,0.));
#335=CARTESIAN_POINT('',(0.0315,0.025,0.));
#336=CARTESIAN_POINT('',(0.0315,0.025,0.0044));
#337=CARTESIAN_POINT('',(0.0315,0.025,0.0044));
#338=CARTESIAN_POINT('',(0.0315,8.67361737988404E-18,0.0044));
#339=CARTESIAN_POINT('',(-6.93889390390723E-18,0.025,0.0044));
#340=CARTESIAN_POINT('',(-6.93889390390723E-18,0.025,0.));
#341=CARTESIAN_POINT('',(-0.0315,0.025,0.));
#342=CARTESIAN_POINT('',(-0.0315,0.025,0.0044));
#343=CARTESIAN_POINT('',(-0.0315,0.025,0.0044));
#344=CARTESIAN_POINT('',(-6.93889390390723E-18,0.025,0.0044));
#345=CARTESIAN_POINT('',(-0.0225,0.015,0.0044));
#346=CARTESIAN_POINT('',(-0.0225,0.015,0.0044));
#347=CARTESIAN_POINT('',(-0.01725,0.015,0.0044));
#348=CARTESIAN_POINT('',(-0.0225,0.015,0.));
#349=CARTESIAN_POINT('',(-0.01725,0.015,0.));
#350=CARTESIAN_POINT('',(-0.0225,3.2146978477618E-19,0.0044));
#351=CARTESIAN_POINT('',(-0.0225,3.2146978477618E-19,0.0044));
#352=CARTESIAN_POINT('',(-0.01725,3.2146978477618E-19,0.0044));
#353=CARTESIAN_POINT('',(-0.0225,3.2146978477618E-19,0.));
#354=CARTESIAN_POINT('',(-0.01725,3.2146978477618E-19,0.));
#355=CARTESIAN_POINT('',(-0.0225,-0.015,0.0044));
#356=CARTESIAN_POINT('',(-0.0225,-0.015,0.0044));
#357=CARTESIAN_POINT('',(-0.01725,-0.015,0.0044));
#358=CARTESIAN_POINT('',(-0.0225,-0.015,0.));
#359=CARTESIAN_POINT('',(-0.01725,-0.015,0.));
#360=CARTESIAN_POINT('',(0.0225,0.015,0.0044));
#361=CARTESIAN_POINT('',(0.0225,0.015,0.0044));
#362=CARTESIAN_POINT('',(0.02775,0.015,0.0044));
#363=CARTESIAN_POINT('',(0.0225,0.015,0.));
#364=CARTESIAN_POINT('',(0.02775,0.015,0.));
#365=CARTESIAN_POINT('',(0.0225,3.08978387424876E-19,0.0044));
#366=CARTESIAN_POINT('',(0.0225,3.08978387424876E-19,0.0044));
#367=CARTESIAN_POINT('',(0.02775,3.08978387424876E-19,0.0044));
#368=CARTESIAN_POINT('',(0.0225,3.08978387424876E-19,0.));
#369=CARTESIAN_POINT('',(0.02775,3.08978387424876E-19,0.));
#370=CARTESIAN_POINT('',(0.0225,-0.015,0.0044));
#371=CARTESIAN_POINT('',(0.0225,-0.015,0.0044));
#372=CARTESIAN_POINT('',(0.02775,-0.015,0.0044));
#373=CARTESIAN_POINT('',(0.0225,-0.015,0.));
#374=CARTESIAN_POINT('',(0.02775,-0.015,0.));
#375=CARTESIAN_POINT('',(-0.0315,-6.93889390390723E-18,0.0044));
#376=CARTESIAN_POINT('',(-0.0315,-6.93889390390723E-18,0.));
#377=CARTESIAN_POINT('',(-0.0315,-6.93889390390723E-18,0.0044));
#378=CARTESIAN_POINT('',(-6.93889390390723E-18,0.,0.0044));
#379=CARTESIAN_POINT('',(-6.93889390390723E-18,0.,0.));
#380=MECHANICAL_DESIGN_GEOMETRIC_PRESENTATION_REPRESENTATION('',(#225),
#381);
#381=(
GEOMETRIC_REPRESENTATION_CONTEXT(3)
GLOBAL_UNCERTAINTY_ASSIGNED_CONTEXT((#382))
GLOBAL_UNIT_ASSIGNED_CONTEXT((#385,#384,#383))
REPRESENTATION_CONTEXT('DSCP053-M440','TOP_LEVEL_ASSEMBLY_PART')
);
#382=UNCERTAINTY_MEASURE_WITH_UNIT(LENGTH_MEASURE(5.E-6),#385,
'DISTANCE_ACCURACY_VALUE','Maximum Tolerance applied to model');
#383=(
NAMED_UNIT(*)
SI_UNIT($,.STERADIAN.)
SOLID_ANGLE_UNIT()
);
#384=(
NAMED_UNIT(*)
PLANE_ANGLE_UNIT()
SI_UNIT($,.RADIAN.)
);
#385=(
LENGTH_UNIT()
NAMED_UNIT(*)
SI_UNIT($,.METRE.)
);
#386=PRODUCT_DEFINITION_SHAPE('','',#387);
#387=PRODUCT_DEFINITION('','',#389,#388);
#388=PRODUCT_DEFINITION_CONTEXT('',#395,'design');
#389=PRODUCT_DEFINITION_FORMATION_WITH_SPECIFIED_SOURCE('','',#391,
 .NOT_KNOWN.);
#390=PRODUCT_RELATED_PRODUCT_CATEGORY('','',(#391));
#391=PRODUCT('DSCP053-M440','DSCP053-M440','DSCP053-M440',(#393));
#392=PRODUCT_CATEGORY('','');
#393=PRODUCT_CONTEXT('',#395,'mechanical');
#394=APPLICATION_PROTOCOL_DEFINITION('international standard',
'ap242_managed_model_based_3d_engineering',2011,#395);
#395=APPLICATION_CONTEXT('managed model based 3d engineering');
ENDSEC;
END-ISO-10303-21;
