ISO-10303-21;
HEADER;
/* Generated by software containing ST-Developer
 * from STEP Tools, Inc. (www.steptools.com) 
 */
/* OPTION: using custom renumber hook */

FILE_DESCRIPTION(
/* description */ ('STEP AP242',
'CAx-IF Rec.Pracs.---Representation and Presentation of Product Manufa
cturing Information (PMI)---4.0---2014-10-13',
'CAx-IF Rec.Pracs.---3D Tessellated Geometry---0.4---2014-09-14','2;1'),

/* implementation_level */ '2;1');

FILE_NAME(
/* name */ '6290aa98788c223be89d6c26',
/* time_stamp */ '2022-05-27T10:40:25+00:00',
/* author */ (''),
/* organization */ (''),
/* preprocessor_version */ 'ST-DEVELOPER v18.102',
/* originating_system */ '  ',
/* authorisation */ '  ');

FILE_SCHEMA (('AP242_MANAGED_MODEL_BASED_3D_ENGINEERING_MIM_LF { 1 0 10303 442 1 1 4 }'));
ENDSEC;

DATA;
#10=SHAPE_REPRESENTATION_RELATIONSHIP('','',#395,#11);
#11=ADVANCED_BREP_SHAPE_REPRESENTATION('',(#393),#661);
#12=CYLINDRICAL_SURFACE('',#419,0.0049609375);
#13=CYLINDRICAL_SURFACE('',#420,0.0049609375);
#14=CYLINDRICAL_SURFACE('',#422,0.003175);
#15=CYLINDRICAL_SURFACE('',#424,0.003175);
#16=CYLINDRICAL_SURFACE('',#426,0.003175);
#17=CYLINDRICAL_SURFACE('',#428,0.003175);
#18=CYLINDRICAL_SURFACE('',#430,0.003175);
#19=CYLINDRICAL_SURFACE('',#432,0.003175);
#20=CYLINDRICAL_SURFACE('',#433,0.003175);
#21=CYLINDRICAL_SURFACE('',#434,0.0049609375);
#22=LINE('',#557,#54);
#23=LINE('',#562,#55);
#24=LINE('',#566,#56);
#25=LINE('',#570,#57);
#26=LINE('',#574,#58);
#27=LINE('',#578,#59);
#28=LINE('',#584,#60);
#29=LINE('',#588,#61);
#30=LINE('',#594,#62);
#31=LINE('',#599,#63);
#32=LINE('',#603,#64);
#33=LINE('',#607,#65);
#34=LINE('',#611,#66);
#35=LINE('',#615,#67);
#36=LINE('',#618,#68);
#37=LINE('',#623,#69);
#38=LINE('',#627,#70);
#39=LINE('',#628,#71);
#40=LINE('',#630,#72);
#41=LINE('',#631,#73);
#42=LINE('',#633,#74);
#43=LINE('',#634,#75);
#44=LINE('',#636,#76);
#45=LINE('',#638,#77);
#46=LINE('',#640,#78);
#47=LINE('',#642,#79);
#48=LINE('',#644,#80);
#49=LINE('',#646,#81);
#50=LINE('',#648,#82);
#51=LINE('',#650,#83);
#52=LINE('',#652,#84);
#53=LINE('',#654,#85);
#54=VECTOR('',#445,1.);
#55=VECTOR('',#448,1.);
#56=VECTOR('',#451,1.);
#57=VECTOR('',#454,1.);
#58=VECTOR('',#457,1.);
#59=VECTOR('',#460,1.);
#60=VECTOR('',#465,1.);
#61=VECTOR('',#468,1.);
#62=VECTOR('',#475,1.);
#63=VECTOR('',#478,1.);
#64=VECTOR('',#481,1.);
#65=VECTOR('',#484,1.);
#66=VECTOR('',#487,1.);
#67=VECTOR('',#490,1.);
#68=VECTOR('',#493,1.);
#69=VECTOR('',#496,1.);
#70=VECTOR('',#501,1.);
#71=VECTOR('',#502,1.);
#72=VECTOR('',#505,1.);
#73=VECTOR('',#506,1.);
#74=VECTOR('',#509,1.);
#75=VECTOR('',#510,1.);
#76=VECTOR('',#513,1.);
#77=VECTOR('',#516,1.);
#78=VECTOR('',#519,1.);
#79=VECTOR('',#522,1.);
#80=VECTOR('',#525,1.);
#81=VECTOR('',#528,1.);
#82=VECTOR('',#531,1.);
#83=VECTOR('',#534,1.);
#84=VECTOR('',#537,1.);
#85=VECTOR('',#540,1.);
#86=ORIENTED_EDGE('',*,*,#190,.F.);
#87=ORIENTED_EDGE('',*,*,#191,.F.);
#88=ORIENTED_EDGE('',*,*,#192,.F.);
#89=ORIENTED_EDGE('',*,*,#193,.T.);
#90=ORIENTED_EDGE('',*,*,#194,.T.);
#91=ORIENTED_EDGE('',*,*,#195,.T.);
#92=ORIENTED_EDGE('',*,*,#196,.T.);
#93=ORIENTED_EDGE('',*,*,#197,.T.);
#94=ORIENTED_EDGE('',*,*,#198,.F.);
#95=ORIENTED_EDGE('',*,*,#199,.T.);
#96=ORIENTED_EDGE('',*,*,#200,.F.);
#97=ORIENTED_EDGE('',*,*,#201,.T.);
#98=ORIENTED_EDGE('',*,*,#202,.T.);
#99=ORIENTED_EDGE('',*,*,#203,.F.);
#100=ORIENTED_EDGE('',*,*,#204,.F.);
#101=ORIENTED_EDGE('',*,*,#205,.T.);
#102=ORIENTED_EDGE('',*,*,#206,.F.);
#103=ORIENTED_EDGE('',*,*,#207,.T.);
#104=ORIENTED_EDGE('',*,*,#208,.F.);
#105=ORIENTED_EDGE('',*,*,#209,.F.);
#106=ORIENTED_EDGE('',*,*,#210,.T.);
#107=ORIENTED_EDGE('',*,*,#211,.T.);
#108=ORIENTED_EDGE('',*,*,#212,.F.);
#109=ORIENTED_EDGE('',*,*,#213,.F.);
#110=ORIENTED_EDGE('',*,*,#214,.T.);
#111=ORIENTED_EDGE('',*,*,#215,.F.);
#112=ORIENTED_EDGE('',*,*,#216,.T.);
#113=ORIENTED_EDGE('',*,*,#217,.F.);
#114=ORIENTED_EDGE('',*,*,#218,.F.);
#115=ORIENTED_EDGE('',*,*,#219,.F.);
#116=ORIENTED_EDGE('',*,*,#220,.F.);
#117=ORIENTED_EDGE('',*,*,#221,.F.);
#118=ORIENTED_EDGE('',*,*,#222,.F.);
#119=ORIENTED_EDGE('',*,*,#223,.F.);
#120=ORIENTED_EDGE('',*,*,#224,.F.);
#121=ORIENTED_EDGE('',*,*,#225,.F.);
#122=ORIENTED_EDGE('',*,*,#223,.T.);
#123=ORIENTED_EDGE('',*,*,#226,.T.);
#124=ORIENTED_EDGE('',*,*,#204,.T.);
#125=ORIENTED_EDGE('',*,*,#227,.F.);
#126=ORIENTED_EDGE('',*,*,#225,.T.);
#127=ORIENTED_EDGE('',*,*,#228,.T.);
#128=ORIENTED_EDGE('',*,*,#206,.T.);
#129=ORIENTED_EDGE('',*,*,#229,.F.);
#130=ORIENTED_EDGE('',*,*,#210,.F.);
#131=ORIENTED_EDGE('',*,*,#230,.F.);
#132=ORIENTED_EDGE('',*,*,#192,.T.);
#133=ORIENTED_EDGE('',*,*,#231,.T.);
#134=ORIENTED_EDGE('',*,*,#221,.T.);
#135=ORIENTED_EDGE('',*,*,#232,.F.);
#136=ORIENTED_EDGE('',*,*,#193,.F.);
#137=ORIENTED_EDGE('',*,*,#230,.T.);
#138=ORIENTED_EDGE('',*,*,#220,.T.);
#139=ORIENTED_EDGE('',*,*,#233,.F.);
#140=ORIENTED_EDGE('',*,*,#194,.F.);
#141=ORIENTED_EDGE('',*,*,#232,.T.);
#142=ORIENTED_EDGE('',*,*,#219,.T.);
#143=ORIENTED_EDGE('',*,*,#234,.F.);
#144=ORIENTED_EDGE('',*,*,#195,.F.);
#145=ORIENTED_EDGE('',*,*,#233,.T.);
#146=ORIENTED_EDGE('',*,*,#218,.T.);
#147=ORIENTED_EDGE('',*,*,#235,.F.);
#148=ORIENTED_EDGE('',*,*,#196,.F.);
#149=ORIENTED_EDGE('',*,*,#234,.T.);
#150=ORIENTED_EDGE('',*,*,#217,.T.);
#151=ORIENTED_EDGE('',*,*,#236,.F.);
#152=ORIENTED_EDGE('',*,*,#197,.F.);
#153=ORIENTED_EDGE('',*,*,#235,.T.);
#154=ORIENTED_EDGE('',*,*,#216,.F.);
#155=ORIENTED_EDGE('',*,*,#237,.F.);
#156=ORIENTED_EDGE('',*,*,#198,.T.);
#157=ORIENTED_EDGE('',*,*,#236,.T.);
#158=ORIENTED_EDGE('',*,*,#215,.T.);
#159=ORIENTED_EDGE('',*,*,#238,.F.);
#160=ORIENTED_EDGE('',*,*,#199,.F.);
#161=ORIENTED_EDGE('',*,*,#237,.T.);
#162=ORIENTED_EDGE('',*,*,#214,.F.);
#163=ORIENTED_EDGE('',*,*,#239,.F.);
#164=ORIENTED_EDGE('',*,*,#200,.T.);
#165=ORIENTED_EDGE('',*,*,#238,.T.);
#166=ORIENTED_EDGE('',*,*,#213,.T.);
#167=ORIENTED_EDGE('',*,*,#240,.F.);
#168=ORIENTED_EDGE('',*,*,#201,.F.);
#169=ORIENTED_EDGE('',*,*,#239,.T.);
#170=ORIENTED_EDGE('',*,*,#212,.T.);
#171=ORIENTED_EDGE('',*,*,#241,.F.);
#172=ORIENTED_EDGE('',*,*,#202,.F.);
#173=ORIENTED_EDGE('',*,*,#240,.T.);
#174=ORIENTED_EDGE('',*,*,#211,.F.);
#175=ORIENTED_EDGE('',*,*,#231,.F.);
#176=ORIENTED_EDGE('',*,*,#203,.T.);
#177=ORIENTED_EDGE('',*,*,#241,.T.);
#178=ORIENTED_EDGE('',*,*,#191,.T.);
#179=ORIENTED_EDGE('',*,*,#209,.T.);
#180=ORIENTED_EDGE('',*,*,#190,.T.);
#181=ORIENTED_EDGE('',*,*,#208,.T.);
#182=ORIENTED_EDGE('',*,*,#222,.T.);
#183=ORIENTED_EDGE('',*,*,#229,.T.);
#184=ORIENTED_EDGE('',*,*,#205,.F.);
#185=ORIENTED_EDGE('',*,*,#226,.F.);
#186=ORIENTED_EDGE('',*,*,#224,.T.);
#187=ORIENTED_EDGE('',*,*,#227,.T.);
#188=ORIENTED_EDGE('',*,*,#207,.F.);
#189=ORIENTED_EDGE('',*,*,#228,.F.);
#190=EDGE_CURVE('',#242,#242,#278,.T.);
#191=EDGE_CURVE('',#243,#243,#279,.T.);
#192=EDGE_CURVE('',#244,#245,#22,.T.);
#193=EDGE_CURVE('',#244,#246,#280,.T.);
#194=EDGE_CURVE('',#246,#247,#23,.T.);
#195=EDGE_CURVE('',#247,#248,#281,.T.);
#196=EDGE_CURVE('',#248,#249,#24,.T.);
#197=EDGE_CURVE('',#249,#250,#282,.T.);
#198=EDGE_CURVE('',#251,#250,#25,.T.);
#199=EDGE_CURVE('',#251,#252,#283,.T.);
#200=EDGE_CURVE('',#253,#252,#26,.T.);
#201=EDGE_CURVE('',#253,#254,#284,.T.);
#202=EDGE_CURVE('',#254,#255,#27,.T.);
#203=EDGE_CURVE('',#245,#255,#285,.T.);
#204=EDGE_CURVE('',#256,#257,#286,.T.);
#205=EDGE_CURVE('',#256,#258,#28,.T.);
#206=EDGE_CURVE('',#259,#258,#287,.T.);
#207=EDGE_CURVE('',#259,#257,#29,.T.);
#208=EDGE_CURVE('',#260,#260,#288,.F.);
#209=EDGE_CURVE('',#261,#261,#289,.F.);
#210=EDGE_CURVE('',#262,#263,#30,.T.);
#211=EDGE_CURVE('',#263,#264,#290,.T.);
#212=EDGE_CURVE('',#265,#264,#31,.T.);
#213=EDGE_CURVE('',#266,#265,#291,.T.);
#214=EDGE_CURVE('',#266,#267,#32,.T.);
#215=EDGE_CURVE('',#268,#267,#292,.T.);
#216=EDGE_CURVE('',#268,#269,#33,.T.);
#217=EDGE_CURVE('',#270,#269,#293,.T.);
#218=EDGE_CURVE('',#271,#270,#34,.T.);
#219=EDGE_CURVE('',#272,#271,#294,.T.);
#220=EDGE_CURVE('',#273,#272,#35,.T.);
#221=EDGE_CURVE('',#262,#273,#295,.T.);
#222=EDGE_CURVE('',#274,#275,#36,.T.);
#223=EDGE_CURVE('',#276,#274,#296,.F.);
#224=EDGE_CURVE('',#277,#276,#37,.T.);
#225=EDGE_CURVE('',#275,#277,#297,.F.);
#226=EDGE_CURVE('',#274,#256,#38,.T.);
#227=EDGE_CURVE('',#276,#257,#39,.T.);
#228=EDGE_CURVE('',#277,#259,#40,.T.);
#229=EDGE_CURVE('',#275,#258,#41,.T.);
#230=EDGE_CURVE('',#244,#262,#42,.T.);
#231=EDGE_CURVE('',#245,#263,#43,.T.);
#232=EDGE_CURVE('',#246,#273,#44,.T.);
#233=EDGE_CURVE('',#247,#272,#45,.T.);
#234=EDGE_CURVE('',#248,#271,#46,.T.);
#235=EDGE_CURVE('',#249,#270,#47,.T.);
#236=EDGE_CURVE('',#250,#269,#48,.T.);
#237=EDGE_CURVE('',#251,#268,#49,.T.);
#238=EDGE_CURVE('',#252,#267,#50,.T.);
#239=EDGE_CURVE('',#253,#266,#51,.T.);
#240=EDGE_CURVE('',#254,#265,#52,.T.);
#241=EDGE_CURVE('',#255,#264,#53,.T.);
#242=VERTEX_POINT('',#554);
#243=VERTEX_POINT('',#556);
#244=VERTEX_POINT('',#558);
#245=VERTEX_POINT('',#559);
#246=VERTEX_POINT('',#561);
#247=VERTEX_POINT('',#563);
#248=VERTEX_POINT('',#565);
#249=VERTEX_POINT('',#567);
#250=VERTEX_POINT('',#569);
#251=VERTEX_POINT('',#571);
#252=VERTEX_POINT('',#573);
#253=VERTEX_POINT('',#575);
#254=VERTEX_POINT('',#577);
#255=VERTEX_POINT('',#579);
#256=VERTEX_POINT('',#582);
#257=VERTEX_POINT('',#583);
#258=VERTEX_POINT('',#585);
#259=VERTEX_POINT('',#587);
#260=VERTEX_POINT('',#591);
#261=VERTEX_POINT('',#593);
#262=VERTEX_POINT('',#595);
#263=VERTEX_POINT('',#596);
#264=VERTEX_POINT('',#598);
#265=VERTEX_POINT('',#600);
#266=VERTEX_POINT('',#602);
#267=VERTEX_POINT('',#604);
#268=VERTEX_POINT('',#606);
#269=VERTEX_POINT('',#608);
#270=VERTEX_POINT('',#610);
#271=VERTEX_POINT('',#612);
#272=VERTEX_POINT('',#614);
#273=VERTEX_POINT('',#616);
#274=VERTEX_POINT('',#619);
#275=VERTEX_POINT('',#620);
#276=VERTEX_POINT('',#622);
#277=VERTEX_POINT('',#624);
#278=CIRCLE('',#398,0.0049609375);
#279=CIRCLE('',#399,0.003175);
#280=CIRCLE('',#400,0.003175);
#281=CIRCLE('',#401,0.003175);
#282=CIRCLE('',#402,0.003175);
#283=CIRCLE('',#403,0.003175);
#284=CIRCLE('',#404,0.003175);
#285=CIRCLE('',#405,0.003175);
#286=CIRCLE('',#406,0.0049609375);
#287=CIRCLE('',#407,0.0049609375);
#288=CIRCLE('',#409,0.0049609375);
#289=CIRCLE('',#410,0.003175);
#290=CIRCLE('',#411,0.003175);
#291=CIRCLE('',#412,0.003175);
#292=CIRCLE('',#413,0.003175);
#293=CIRCLE('',#414,0.003175);
#294=CIRCLE('',#415,0.003175);
#295=CIRCLE('',#416,0.003175);
#296=CIRCLE('',#417,0.0049609375);
#297=CIRCLE('',#418,0.0049609375);
#298=EDGE_LOOP('',(#86));
#299=EDGE_LOOP('',(#87));
#300=EDGE_LOOP('',(#88,#89,#90,#91,#92,#93,#94,#95,#96,#97,#98,#99));
#301=EDGE_LOOP('',(#100,#101,#102,#103));
#302=EDGE_LOOP('',(#104));
#303=EDGE_LOOP('',(#105));
#304=EDGE_LOOP('',(#106,#107,#108,#109,#110,#111,#112,#113,#114,#115,#116,
#117));
#305=EDGE_LOOP('',(#118,#119,#120,#121));
#306=EDGE_LOOP('',(#122,#123,#124,#125));
#307=EDGE_LOOP('',(#126,#127,#128,#129));
#308=EDGE_LOOP('',(#130,#131,#132,#133));
#309=EDGE_LOOP('',(#134,#135,#136,#137));
#310=EDGE_LOOP('',(#138,#139,#140,#141));
#311=EDGE_LOOP('',(#142,#143,#144,#145));
#312=EDGE_LOOP('',(#146,#147,#148,#149));
#313=EDGE_LOOP('',(#150,#151,#152,#153));
#314=EDGE_LOOP('',(#154,#155,#156,#157));
#315=EDGE_LOOP('',(#158,#159,#160,#161));
#316=EDGE_LOOP('',(#162,#163,#164,#165));
#317=EDGE_LOOP('',(#166,#167,#168,#169));
#318=EDGE_LOOP('',(#170,#171,#172,#173));
#319=EDGE_LOOP('',(#174,#175,#176,#177));
#320=EDGE_LOOP('',(#178));
#321=EDGE_LOOP('',(#179));
#322=EDGE_LOOP('',(#180));
#323=EDGE_LOOP('',(#181));
#324=EDGE_LOOP('',(#182,#183,#184,#185));
#325=EDGE_LOOP('',(#186,#187,#188,#189));
#326=FACE_BOUND('',#298,.T.);
#327=FACE_BOUND('',#299,.T.);
#328=FACE_BOUND('',#300,.T.);
#329=FACE_BOUND('',#301,.T.);
#330=FACE_BOUND('',#302,.T.);
#331=FACE_BOUND('',#303,.T.);
#332=FACE_BOUND('',#304,.T.);
#333=FACE_BOUND('',#305,.T.);
#334=FACE_BOUND('',#306,.T.);
#335=FACE_BOUND('',#307,.T.);
#336=FACE_BOUND('',#308,.T.);
#337=FACE_BOUND('',#309,.T.);
#338=FACE_BOUND('',#310,.T.);
#339=FACE_BOUND('',#311,.T.);
#340=FACE_BOUND('',#312,.T.);
#341=FACE_BOUND('',#313,.T.);
#342=FACE_BOUND('',#314,.T.);
#343=FACE_BOUND('',#315,.T.);
#344=FACE_BOUND('',#316,.T.);
#345=FACE_BOUND('',#317,.T.);
#346=FACE_BOUND('',#318,.T.);
#347=FACE_BOUND('',#319,.T.);
#348=FACE_BOUND('',#320,.T.);
#349=FACE_BOUND('',#321,.T.);
#350=FACE_BOUND('',#322,.T.);
#351=FACE_BOUND('',#323,.T.);
#352=FACE_BOUND('',#324,.T.);
#353=FACE_BOUND('',#325,.T.);
#354=PLANE('',#397);
#355=PLANE('',#408);
#356=PLANE('',#421);
#357=PLANE('',#423);
#358=PLANE('',#425);
#359=PLANE('',#427);
#360=PLANE('',#429);
#361=PLANE('',#431);
#362=PLANE('',#435);
#363=PLANE('',#436);
#364=ADVANCED_FACE('',(#326,#327,#328,#329),#354,.T.);
#365=ADVANCED_FACE('',(#330,#331,#332,#333),#355,.F.);
#366=ADVANCED_FACE('',(#334),#12,.F.);
#367=ADVANCED_FACE('',(#335),#13,.F.);
#368=ADVANCED_FACE('',(#336),#356,.T.);
#369=ADVANCED_FACE('',(#337),#14,.T.);
#370=ADVANCED_FACE('',(#338),#357,.F.);
#371=ADVANCED_FACE('',(#339),#15,.T.);
#372=ADVANCED_FACE('',(#340),#358,.F.);
#373=ADVANCED_FACE('',(#341),#16,.T.);
#374=ADVANCED_FACE('',(#342),#359,.T.);
#375=ADVANCED_FACE('',(#343),#17,.T.);
#376=ADVANCED_FACE('',(#344),#360,.T.);
#377=ADVANCED_FACE('',(#345),#18,.T.);
#378=ADVANCED_FACE('',(#346),#361,.F.);
#379=ADVANCED_FACE('',(#347),#19,.F.);
#380=ADVANCED_FACE('',(#348,#349),#20,.F.);
#381=ADVANCED_FACE('',(#350,#351),#21,.F.);
#382=ADVANCED_FACE('',(#352),#362,.T.);
#383=ADVANCED_FACE('',(#353),#363,.T.);
#384=CLOSED_SHELL('',(#364,#365,#366,#367,#368,#369,#370,#371,#372,#373,
#374,#375,#376,#377,#378,#379,#380,#381,#382,#383));
#385=STYLED_ITEM('',(#386),#393);
#386=PRESENTATION_STYLE_ASSIGNMENT((#387));
#387=SURFACE_STYLE_USAGE(.BOTH.,#388);
#388=SURFACE_SIDE_STYLE('',(#389));
#389=SURFACE_STYLE_FILL_AREA(#390);
#390=FILL_AREA_STYLE('',(#391));
#391=FILL_AREA_STYLE_COLOUR('',#392);
#392=COLOUR_RGB('',0.501960784313726,0.501960784313726,0.501960784313726);
#393=MANIFOLD_SOLID_BREP('DSCP054-E125',#384);
#394=SHAPE_DEFINITION_REPRESENTATION(#666,#395);
#395=SHAPE_REPRESENTATION('DSCP054-E125',(#396),#661);
#396=AXIS2_PLACEMENT_3D('',#551,#437,#438);
#397=AXIS2_PLACEMENT_3D('',#552,#439,#440);
#398=AXIS2_PLACEMENT_3D('',#553,#441,#442);
#399=AXIS2_PLACEMENT_3D('',#555,#443,#444);
#400=AXIS2_PLACEMENT_3D('',#560,#446,#447);
#401=AXIS2_PLACEMENT_3D('',#564,#449,#450);
#402=AXIS2_PLACEMENT_3D('',#568,#452,#453);
#403=AXIS2_PLACEMENT_3D('',#572,#455,#456);
#404=AXIS2_PLACEMENT_3D('',#576,#458,#459);
#405=AXIS2_PLACEMENT_3D('',#580,#461,#462);
#406=AXIS2_PLACEMENT_3D('',#581,#463,#464);
#407=AXIS2_PLACEMENT_3D('',#586,#466,#467);
#408=AXIS2_PLACEMENT_3D('',#589,#469,#470);
#409=AXIS2_PLACEMENT_3D('',#590,#471,#472);
#410=AXIS2_PLACEMENT_3D('',#592,#473,#474);
#411=AXIS2_PLACEMENT_3D('',#597,#476,#477);
#412=AXIS2_PLACEMENT_3D('',#601,#479,#480);
#413=AXIS2_PLACEMENT_3D('',#605,#482,#483);
#414=AXIS2_PLACEMENT_3D('',#609,#485,#486);
#415=AXIS2_PLACEMENT_3D('',#613,#488,#489);
#416=AXIS2_PLACEMENT_3D('',#617,#491,#492);
#417=AXIS2_PLACEMENT_3D('',#621,#494,#495);
#418=AXIS2_PLACEMENT_3D('',#625,#497,#498);
#419=AXIS2_PLACEMENT_3D('',#626,#499,#500);
#420=AXIS2_PLACEMENT_3D('',#629,#503,#504);
#421=AXIS2_PLACEMENT_3D('',#632,#507,#508);
#422=AXIS2_PLACEMENT_3D('',#635,#511,#512);
#423=AXIS2_PLACEMENT_3D('',#637,#514,#515);
#424=AXIS2_PLACEMENT_3D('',#639,#517,#518);
#425=AXIS2_PLACEMENT_3D('',#641,#520,#521);
#426=AXIS2_PLACEMENT_3D('',#643,#523,#524);
#427=AXIS2_PLACEMENT_3D('',#645,#526,#527);
#428=AXIS2_PLACEMENT_3D('',#647,#529,#530);
#429=AXIS2_PLACEMENT_3D('',#649,#532,#533);
#430=AXIS2_PLACEMENT_3D('',#651,#535,#536);
#431=AXIS2_PLACEMENT_3D('',#653,#538,#539);
#432=AXIS2_PLACEMENT_3D('',#655,#541,#542);
#433=AXIS2_PLACEMENT_3D('',#656,#543,#544);
#434=AXIS2_PLACEMENT_3D('',#657,#545,#546);
#435=AXIS2_PLACEMENT_3D('',#658,#547,#548);
#436=AXIS2_PLACEMENT_3D('',#659,#549,#550);
#437=DIRECTION('',(0.,0.,1.));
#438=DIRECTION('',(1.,0.,0.));
#439=DIRECTION('',(0.,0.,1.));
#440=DIRECTION('',(1.,0.,0.));
#441=DIRECTION('',(0.,0.,1.));
#442=DIRECTION('',(1.,0.,0.));
#443=DIRECTION('',(0.,0.,1.));
#444=DIRECTION('',(1.,0.,0.));
#445=DIRECTION('',(-1.,-1.31338845849243E-16,0.));
#446=DIRECTION('',(0.,0.,1.));
#447=DIRECTION('',(1.,0.,0.));
#448=DIRECTION('',(0.,1.,0.));
#449=DIRECTION('',(0.,0.,1.));
#450=DIRECTION('',(1.,0.,0.));
#451=DIRECTION('',(-1.,-1.35912835505685E-16,0.));
#452=DIRECTION('',(0.,0.,1.));
#453=DIRECTION('',(1.,0.,0.));
#454=DIRECTION('',(0.,1.,0.));
#455=DIRECTION('',(0.,0.,1.));
#456=DIRECTION('',(1.,0.,0.));
#457=DIRECTION('',(-1.,-4.13916362676404E-16,0.));
#458=DIRECTION('',(0.,0.,1.));
#459=DIRECTION('',(1.,0.,0.));
#460=DIRECTION('',(7.94141858623332E-17,1.,0.));
#461=DIRECTION('',(0.,0.,1.));
#462=DIRECTION('',(1.,0.,0.));
#463=DIRECTION('',(0.,0.,1.));
#464=DIRECTION('',(1.,0.,0.));
#465=DIRECTION('',(1.,1.14388320247313E-9,0.));
#466=DIRECTION('',(0.,0.,1.));
#467=DIRECTION('',(1.,0.,0.));
#468=DIRECTION('',(-1.,0.,0.));
#469=DIRECTION('',(0.,0.,1.));
#470=DIRECTION('',(1.,0.,0.));
#471=DIRECTION('',(0.,0.,1.));
#472=DIRECTION('',(1.,0.,0.));
#473=DIRECTION('',(0.,0.,1.));
#474=DIRECTION('',(1.,0.,0.));
#475=DIRECTION('',(-1.,-1.31338845849243E-16,0.));
#476=DIRECTION('',(0.,0.,1.));
#477=DIRECTION('',(1.,0.,0.));
#478=DIRECTION('',(7.94141858623332E-17,1.,0.));
#479=DIRECTION('',(0.,0.,1.));
#480=DIRECTION('',(1.,0.,0.));
#481=DIRECTION('',(-1.,-4.13916362676404E-16,0.));
#482=DIRECTION('',(0.,0.,1.));
#483=DIRECTION('',(1.,0.,0.));
#484=DIRECTION('',(0.,1.,0.));
#485=DIRECTION('',(0.,0.,1.));
#486=DIRECTION('',(1.,0.,0.));
#487=DIRECTION('',(-1.,-1.35912835505685E-16,0.));
#488=DIRECTION('',(0.,0.,1.));
#489=DIRECTION('',(1.,0.,0.));
#490=DIRECTION('',(0.,1.,0.));
#491=DIRECTION('',(0.,0.,1.));
#492=DIRECTION('',(1.,0.,0.));
#493=DIRECTION('',(1.,1.14388320247313E-9,0.));
#494=DIRECTION('',(0.,0.,1.));
#495=DIRECTION('',(1.,0.,0.));
#496=DIRECTION('',(-1.,0.,0.));
#497=DIRECTION('',(0.,0.,1.));
#498=DIRECTION('',(1.,0.,0.));
#499=DIRECTION('',(0.,0.,1.));
#500=DIRECTION('',(1.,0.,0.));
#501=DIRECTION('',(0.,0.,1.));
#502=DIRECTION('',(0.,0.,1.));
#503=DIRECTION('',(0.,0.,1.));
#504=DIRECTION('',(1.,0.,0.));
#505=DIRECTION('',(0.,0.,1.));
#506=DIRECTION('',(0.,0.,1.));
#507=DIRECTION('',(1.31338845849243E-16,-1.,0.));
#508=DIRECTION('',(1.,1.31338845849243E-16,0.));
#509=DIRECTION('',(0.,0.,-1.));
#510=DIRECTION('',(0.,0.,-1.));
#511=DIRECTION('',(0.,0.,-1.));
#512=DIRECTION('',(-1.,0.,0.));
#513=DIRECTION('',(0.,0.,-1.));
#514=DIRECTION('',(-1.,0.,0.));
#515=DIRECTION('',(0.,0.,1.));
#516=DIRECTION('',(0.,0.,-1.));
#517=DIRECTION('',(0.,0.,-1.));
#518=DIRECTION('',(-1.,0.,0.));
#519=DIRECTION('',(0.,0.,-1.));
#520=DIRECTION('',(1.35912835505685E-16,-1.,0.));
#521=DIRECTION('',(1.,1.35912835505685E-16,0.));
#522=DIRECTION('',(0.,0.,-1.));
#523=DIRECTION('',(0.,0.,-1.));
#524=DIRECTION('',(-1.,0.,0.));
#525=DIRECTION('',(0.,0.,-1.));
#526=DIRECTION('',(-1.,0.,0.));
#527=DIRECTION('',(0.,0.,1.));
#528=DIRECTION('',(0.,0.,-1.));
#529=DIRECTION('',(0.,0.,-1.));
#530=DIRECTION('',(-1.,0.,0.));
#531=DIRECTION('',(0.,0.,-1.));
#532=DIRECTION('',(4.13916362676404E-16,-1.,0.));
#533=DIRECTION('',(1.,4.13916362676404E-16,0.));
#534=DIRECTION('',(0.,0.,-1.));
#535=DIRECTION('',(0.,0.,-1.));
#536=DIRECTION('',(-1.,0.,0.));
#537=DIRECTION('',(0.,0.,-1.));
#538=DIRECTION('',(-1.,7.94141858623332E-17,0.));
#539=DIRECTION('',(-7.94141858623332E-17,-1.,0.));
#540=DIRECTION('',(0.,0.,-1.));
#541=DIRECTION('',(0.,0.,-1.));
#542=DIRECTION('',(-1.,0.,0.));
#543=DIRECTION('',(0.,0.,1.));
#544=DIRECTION('',(1.,0.,0.));
#545=DIRECTION('',(0.,0.,1.));
#546=DIRECTION('',(1.,0.,0.));
#547=DIRECTION('',(1.14388320247313E-9,-1.,0.));
#548=DIRECTION('',(1.,1.14388320247313E-9,0.));
#549=DIRECTION('',(0.,1.,0.));
#550=DIRECTION('',(0.,0.,1.));
#551=CARTESIAN_POINT('',(0.,0.,0.));
#552=CARTESIAN_POINT('',(0.,0.,0.003175));
#553=CARTESIAN_POINT('',(-0.0190065793946982,0.014097,0.003175));
#554=CARTESIAN_POINT('',(-0.0140456418946982,0.014097,0.003175));
#555=CARTESIAN_POINT('',(-0.0230705793946981,-0.014351,0.003175));
#556=CARTESIAN_POINT('',(-0.0198955793946981,-0.014351,0.003175));
#557=CARTESIAN_POINT('',(0.007366,0.003429,0.003175));
#558=CARTESIAN_POINT('',(0.025527,0.003429,0.003175));
#559=CARTESIAN_POINT('',(-0.010795,0.003429,0.003175));
#560=CARTESIAN_POINT('',(0.025527,0.006604,0.003175));
#561=CARTESIAN_POINT('',(0.028702,0.006604,0.003175));
#562=CARTESIAN_POINT('',(0.028702,0.014097,0.003175));
#563=CARTESIAN_POINT('',(0.028702,0.02159,0.003175));
#564=CARTESIAN_POINT('',(0.025527,0.02159,0.003175));
#565=CARTESIAN_POINT('',(0.025527,0.024765,0.003175));
#566=CARTESIAN_POINT('',(0.,0.024765,0.003175));
#567=CARTESIAN_POINT('',(-0.025527,0.024765,0.003175));
#568=CARTESIAN_POINT('',(-0.025527,0.02159,0.003175));
#569=CARTESIAN_POINT('',(-0.028702,0.02159,0.003175));
#570=CARTESIAN_POINT('',(-0.028702,-3.46944695195361E-18,0.003175));
#571=CARTESIAN_POINT('',(-0.028702,-0.02159,0.003175));
#572=CARTESIAN_POINT('',(-0.025527,-0.02159,0.003175));
#573=CARTESIAN_POINT('',(-0.025527,-0.024765,0.003175));
#574=CARTESIAN_POINT('',(-0.021336,-0.024765,0.003175));
#575=CARTESIAN_POINT('',(-0.017145,-0.024765,0.003175));
#576=CARTESIAN_POINT('',(-0.017145,-0.02159,0.003175));
#577=CARTESIAN_POINT('',(-0.01397,-0.02159,0.003175));
#578=CARTESIAN_POINT('',(-0.01397,-0.010668,0.003175));
#579=CARTESIAN_POINT('',(-0.01397,0.000254,0.003175));
#580=CARTESIAN_POINT('',(-0.010795,0.000254,0.003175));
#581=CARTESIAN_POINT('',(0.00893342060530187,0.014097,0.003175));
#582=CARTESIAN_POINT('',(0.00893342059962713,0.0190579374892498,0.003175));
#583=CARTESIAN_POINT('',(0.00893342060530187,0.00913606250000001,0.003175));
#584=CARTESIAN_POINT('',(0.0136322573036543,0.0190579374946247,0.003175));
#585=CARTESIAN_POINT('',(0.0183314205996272,0.0190579375,0.003175));
#586=CARTESIAN_POINT('',(0.0183314206053018,0.014097,0.003175));
#587=CARTESIAN_POINT('',(0.0183314205996272,0.00913606250000001,0.003175));
#588=CARTESIAN_POINT('',(0.0136324206024645,0.00913606250000001,0.003175));
#589=CARTESIAN_POINT('',(0.,0.,0.));
#590=CARTESIAN_POINT('',(-0.0190065793946982,0.014097,0.));
#591=CARTESIAN_POINT('',(-0.0140456418946982,0.014097,0.));
#592=CARTESIAN_POINT('',(-0.0230705793946981,-0.014351,0.));
#593=CARTESIAN_POINT('',(-0.0198955793946981,-0.014351,0.));
#594=CARTESIAN_POINT('',(0.007366,0.003429,0.));
#595=CARTESIAN_POINT('',(0.025527,0.003429,0.));
#596=CARTESIAN_POINT('',(-0.010795,0.003429,0.));
#597=CARTESIAN_POINT('',(-0.010795,0.000254,0.));
#598=CARTESIAN_POINT('',(-0.01397,0.000254,0.));
#599=CARTESIAN_POINT('',(-0.01397,-0.010668,0.));
#600=CARTESIAN_POINT('',(-0.01397,-0.02159,0.));
#601=CARTESIAN_POINT('',(-0.017145,-0.02159,0.));
#602=CARTESIAN_POINT('',(-0.017145,-0.024765,0.));
#603=CARTESIAN_POINT('',(-0.021336,-0.024765,0.));
#604=CARTESIAN_POINT('',(-0.025527,-0.024765,0.));
#605=CARTESIAN_POINT('',(-0.025527,-0.02159,0.));
#606=CARTESIAN_POINT('',(-0.028702,-0.02159,0.));
#607=CARTESIAN_POINT('',(-0.028702,-3.46944695195361E-18,0.));
#608=CARTESIAN_POINT('',(-0.028702,0.02159,0.));
#609=CARTESIAN_POINT('',(-0.025527,0.02159,0.));
#610=CARTESIAN_POINT('',(-0.025527,0.024765,0.));
#611=CARTESIAN_POINT('',(0.,0.024765,0.));
#612=CARTESIAN_POINT('',(0.025527,0.024765,0.));
#613=CARTESIAN_POINT('',(0.025527,0.02159,0.));
#614=CARTESIAN_POINT('',(0.028702,0.02159,0.));
#615=CARTESIAN_POINT('',(0.028702,0.014097,0.));
#616=CARTESIAN_POINT('',(0.028702,0.006604,0.));
#617=CARTESIAN_POINT('',(0.025527,0.006604,0.));
#618=CARTESIAN_POINT('',(-2.18000545560467E-11,0.019057937479031,0.));
#619=CARTESIAN_POINT('',(0.00893342059962713,0.0190579374946249,0.));
#620=CARTESIAN_POINT('',(0.0183314205996272,0.0190579375,0.));
#621=CARTESIAN_POINT('',(0.00893342060530187,0.014097,0.));
#622=CARTESIAN_POINT('',(0.00893342060530187,0.00913606250000001,-6.93889390390723E-18));
#623=CARTESIAN_POINT('',(0.,0.00913606250000001,0.));
#624=CARTESIAN_POINT('',(0.0183314205996272,0.00913606250000001,-6.93889390390723E-18));
#625=CARTESIAN_POINT('',(0.0183314206053018,0.014097,0.));
#626=CARTESIAN_POINT('',(0.00893342060530187,0.014097,-0.0742003337325136));
#627=CARTESIAN_POINT('',(0.00893342059962713,0.0190579374946249,-0.0742003337325136));
#628=CARTESIAN_POINT('',(0.00893342060530187,0.00913606250000001,-0.022225));
#629=CARTESIAN_POINT('',(0.0183314206053018,0.014097,-0.0742003337325136));
#630=CARTESIAN_POINT('',(0.0183314205996272,0.00913606250000001,-0.022225));
#631=CARTESIAN_POINT('',(0.0183314205996272,0.0190579375,-0.022225));
#632=CARTESIAN_POINT('',(0.007366,0.003429,0.003175));
#633=CARTESIAN_POINT('',(0.025527,0.003429,0.003175));
#634=CARTESIAN_POINT('',(-0.010795,0.003429,0.003175));
#635=CARTESIAN_POINT('',(0.025527,0.006604,0.003175));
#636=CARTESIAN_POINT('',(0.028702,0.006604,0.003175));
#637=CARTESIAN_POINT('',(0.028702,0.014097,0.003175));
#638=CARTESIAN_POINT('',(0.028702,0.02159,0.003175));
#639=CARTESIAN_POINT('',(0.025527,0.02159,0.003175));
#640=CARTESIAN_POINT('',(0.025527,0.024765,0.003175));
#641=CARTESIAN_POINT('',(0.,0.024765,0.003175));
#642=CARTESIAN_POINT('',(-0.025527,0.024765,0.003175));
#643=CARTESIAN_POINT('',(-0.025527,0.02159,0.003175));
#644=CARTESIAN_POINT('',(-0.028702,0.02159,0.003175));
#645=CARTESIAN_POINT('',(-0.028702,-3.46944695195361E-18,0.003175));
#646=CARTESIAN_POINT('',(-0.028702,-0.02159,0.003175));
#647=CARTESIAN_POINT('',(-0.025527,-0.02159,0.003175));
#648=CARTESIAN_POINT('',(-0.025527,-0.024765,0.003175));
#649=CARTESIAN_POINT('',(-0.021336,-0.024765,0.003175));
#650=CARTESIAN_POINT('',(-0.017145,-0.024765,0.003175));
#651=CARTESIAN_POINT('',(-0.017145,-0.02159,0.003175));
#652=CARTESIAN_POINT('',(-0.01397,-0.02159,0.003175));
#653=CARTESIAN_POINT('',(-0.01397,-0.010668,0.003175));
#654=CARTESIAN_POINT('',(-0.01397,0.000254,0.003175));
#655=CARTESIAN_POINT('',(-0.010795,0.000254,0.003175));
#656=CARTESIAN_POINT('',(-0.0230705793946981,-0.014351,-0.0736637839766164));
#657=CARTESIAN_POINT('',(-0.0190065793946982,0.014097,-0.0742003337325136));
#658=CARTESIAN_POINT('',(0.0136322573036543,0.0190579374946247,-0.022225));
#659=CARTESIAN_POINT('',(0.0136324206024645,0.00913606250000001,-0.022225));
#660=MECHANICAL_DESIGN_GEOMETRIC_PRESENTATION_REPRESENTATION('',(#385),
#661);
#661=(
GEOMETRIC_REPRESENTATION_CONTEXT(3)
GLOBAL_UNCERTAINTY_ASSIGNED_CONTEXT((#662))
GLOBAL_UNIT_ASSIGNED_CONTEXT((#665,#664,#663))
REPRESENTATION_CONTEXT('DSCP054-E125','TOP_LEVEL_ASSEMBLY_PART')
);
#662=UNCERTAINTY_MEASURE_WITH_UNIT(LENGTH_MEASURE(5.E-6),#665,
'DISTANCE_ACCURACY_VALUE','Maximum Tolerance applied to model');
#663=(
NAMED_UNIT(*)
SI_UNIT($,.STERADIAN.)
SOLID_ANGLE_UNIT()
);
#664=(
NAMED_UNIT(*)
PLANE_ANGLE_UNIT()
SI_UNIT($,.RADIAN.)
);
#665=(
LENGTH_UNIT()
NAMED_UNIT(*)
SI_UNIT($,.METRE.)
);
#666=PRODUCT_DEFINITION_SHAPE('','',#667);
#667=PRODUCT_DEFINITION('','',#669,#668);
#668=PRODUCT_DEFINITION_CONTEXT('',#675,'design');
#669=PRODUCT_DEFINITION_FORMATION_WITH_SPECIFIED_SOURCE('','',#671,
 .NOT_KNOWN.);
#670=PRODUCT_RELATED_PRODUCT_CATEGORY('','',(#671));
#671=PRODUCT('DSCP054-E125','DSCP054-E125','DSCP054-E125',(#673));
#672=PRODUCT_CATEGORY('','');
#673=PRODUCT_CONTEXT('',#675,'mechanical');
#674=APPLICATION_PROTOCOL_DEFINITION('international standard',
'ap242_managed_model_based_3d_engineering',2011,#675);
#675=APPLICATION_CONTEXT('managed model based 3d engineering');
ENDSEC;
END-ISO-10303-21;
