ISO-10303-21;
HEADER;
/* Generated by software containing ST-Developer
 * from STEP Tools, Inc. (www.steptools.com) 
 */
/* OPTION: using custom renumber hook */

FILE_DESCRIPTION(
/* description */ ('STEP AP242',
'CAx-IF Rec.Pracs.---Representation and Presentation of Product Manufa
cturing Information (PMI)---4.0---2014-10-13',
'CAx-IF Rec.Pracs.---3D Tessellated Geometry---0.4---2014-09-14','2;1'),

/* implementation_level */ '2;1');

FILE_NAME(
/* name */ '6290b6a032f8a44f54cf87e2',
/* time_stamp */ '2022-05-27T11:31:44+00:00',
/* author */ (''),
/* organization */ (''),
/* preprocessor_version */ 'ST-DEVELOPER v18.102',
/* originating_system */ '  ',
/* authorisation */ '  ');

FILE_SCHEMA (('AP242_MANAGED_MODEL_BASED_3D_ENGINEERING_MIM_LF { 1 0 10303 442 1 1 4 }'));
ENDSEC;

DATA;
#10=SHAPE_REPRESENTATION_RELATIONSHIP('','',#331,#11);
#11=ADVANCED_BREP_SHAPE_REPRESENTATION('',(#329),#555);
#12=CIRCLE('',#335,0.003175);
#13=CIRCLE('',#336,0.003175);
#14=CIRCLE('',#339,0.003175);
#15=CIRCLE('',#340,0.003175);
#16=CIRCLE('',#343,0.003175);
#17=CIRCLE('',#344,0.003175);
#18=CIRCLE('',#347,0.009525);
#19=CIRCLE('',#348,0.009525);
#20=CIRCLE('',#351,0.003175);
#21=CIRCLE('',#352,0.003175);
#22=CIRCLE('',#355,0.006731);
#23=CIRCLE('',#356,0.006731);
#24=CIRCLE('',#358,0.006731);
#25=CIRCLE('',#359,0.006731);
#26=CIRCLE('',#361,0.003175);
#27=CIRCLE('',#362,0.003175);
#28=CIRCLE('',#364,0.003175);
#29=CIRCLE('',#365,0.003175);
#30=CYLINDRICAL_SURFACE('',#334,0.003175);
#31=CYLINDRICAL_SURFACE('',#338,0.003175);
#32=CYLINDRICAL_SURFACE('',#342,0.003175);
#33=CYLINDRICAL_SURFACE('',#346,0.009525);
#34=CYLINDRICAL_SURFACE('',#350,0.003175);
#35=CYLINDRICAL_SURFACE('',#354,0.006731);
#36=CYLINDRICAL_SURFACE('',#357,0.006731);
#37=CYLINDRICAL_SURFACE('',#360,0.003175);
#38=CYLINDRICAL_SURFACE('',#363,0.003175);
#39=ORIENTED_EDGE('',*,*,#123,.T.);
#40=ORIENTED_EDGE('',*,*,#124,.F.);
#41=ORIENTED_EDGE('',*,*,#125,.F.);
#42=ORIENTED_EDGE('',*,*,#126,.T.);
#43=ORIENTED_EDGE('',*,*,#127,.T.);
#44=ORIENTED_EDGE('',*,*,#128,.F.);
#45=ORIENTED_EDGE('',*,*,#129,.F.);
#46=ORIENTED_EDGE('',*,*,#124,.T.);
#47=ORIENTED_EDGE('',*,*,#130,.F.);
#48=ORIENTED_EDGE('',*,*,#131,.F.);
#49=ORIENTED_EDGE('',*,*,#132,.T.);
#50=ORIENTED_EDGE('',*,*,#128,.T.);
#51=ORIENTED_EDGE('',*,*,#133,.T.);
#52=ORIENTED_EDGE('',*,*,#134,.F.);
#53=ORIENTED_EDGE('',*,*,#135,.F.);
#54=ORIENTED_EDGE('',*,*,#131,.T.);
#55=ORIENTED_EDGE('',*,*,#136,.F.);
#56=ORIENTED_EDGE('',*,*,#137,.F.);
#57=ORIENTED_EDGE('',*,*,#138,.T.);
#58=ORIENTED_EDGE('',*,*,#134,.T.);
#59=ORIENTED_EDGE('',*,*,#139,.T.);
#60=ORIENTED_EDGE('',*,*,#140,.F.);
#61=ORIENTED_EDGE('',*,*,#141,.F.);
#62=ORIENTED_EDGE('',*,*,#137,.T.);
#63=ORIENTED_EDGE('',*,*,#142,.T.);
#64=ORIENTED_EDGE('',*,*,#143,.F.);
#65=ORIENTED_EDGE('',*,*,#144,.F.);
#66=ORIENTED_EDGE('',*,*,#140,.T.);
#67=ORIENTED_EDGE('',*,*,#145,.F.);
#68=ORIENTED_EDGE('',*,*,#146,.F.);
#69=ORIENTED_EDGE('',*,*,#147,.T.);
#70=ORIENTED_EDGE('',*,*,#143,.T.);
#71=ORIENTED_EDGE('',*,*,#148,.F.);
#72=ORIENTED_EDGE('',*,*,#149,.F.);
#73=ORIENTED_EDGE('',*,*,#150,.T.);
#74=ORIENTED_EDGE('',*,*,#146,.T.);
#75=ORIENTED_EDGE('',*,*,#151,.T.);
#76=ORIENTED_EDGE('',*,*,#152,.F.);
#77=ORIENTED_EDGE('',*,*,#153,.F.);
#78=ORIENTED_EDGE('',*,*,#149,.T.);
#79=ORIENTED_EDGE('',*,*,#154,.T.);
#80=ORIENTED_EDGE('',*,*,#155,.F.);
#81=ORIENTED_EDGE('',*,*,#156,.F.);
#82=ORIENTED_EDGE('',*,*,#152,.T.);
#83=ORIENTED_EDGE('',*,*,#157,.T.);
#84=ORIENTED_EDGE('',*,*,#158,.F.);
#85=ORIENTED_EDGE('',*,*,#159,.T.);
#86=ORIENTED_EDGE('',*,*,#160,.F.);
#87=ORIENTED_EDGE('',*,*,#161,.T.);
#88=ORIENTED_EDGE('',*,*,#162,.F.);
#89=ORIENTED_EDGE('',*,*,#163,.T.);
#90=ORIENTED_EDGE('',*,*,#126,.F.);
#91=ORIENTED_EDGE('',*,*,#164,.F.);
#92=ORIENTED_EDGE('',*,*,#155,.T.);
#93=ORIENTED_EDGE('',*,*,#161,.F.);
#94=ORIENTED_EDGE('',*,*,#159,.F.);
#95=ORIENTED_EDGE('',*,*,#157,.F.);
#96=ORIENTED_EDGE('',*,*,#125,.T.);
#97=ORIENTED_EDGE('',*,*,#129,.T.);
#98=ORIENTED_EDGE('',*,*,#132,.F.);
#99=ORIENTED_EDGE('',*,*,#135,.T.);
#100=ORIENTED_EDGE('',*,*,#138,.F.);
#101=ORIENTED_EDGE('',*,*,#141,.T.);
#102=ORIENTED_EDGE('',*,*,#144,.T.);
#103=ORIENTED_EDGE('',*,*,#147,.F.);
#104=ORIENTED_EDGE('',*,*,#150,.F.);
#105=ORIENTED_EDGE('',*,*,#153,.T.);
#106=ORIENTED_EDGE('',*,*,#156,.T.);
#107=ORIENTED_EDGE('',*,*,#164,.T.);
#108=ORIENTED_EDGE('',*,*,#162,.T.);
#109=ORIENTED_EDGE('',*,*,#160,.T.);
#110=ORIENTED_EDGE('',*,*,#158,.T.);
#111=ORIENTED_EDGE('',*,*,#123,.F.);
#112=ORIENTED_EDGE('',*,*,#163,.F.);
#113=ORIENTED_EDGE('',*,*,#154,.F.);
#114=ORIENTED_EDGE('',*,*,#151,.F.);
#115=ORIENTED_EDGE('',*,*,#148,.T.);
#116=ORIENTED_EDGE('',*,*,#145,.T.);
#117=ORIENTED_EDGE('',*,*,#142,.F.);
#118=ORIENTED_EDGE('',*,*,#139,.F.);
#119=ORIENTED_EDGE('',*,*,#136,.T.);
#120=ORIENTED_EDGE('',*,*,#133,.F.);
#121=ORIENTED_EDGE('',*,*,#130,.T.);
#122=ORIENTED_EDGE('',*,*,#127,.F.);
#123=EDGE_CURVE('',#165,#166,#195,.T.);
#124=EDGE_CURVE('',#167,#166,#196,.T.);
#125=EDGE_CURVE('',#168,#167,#197,.T.);
#126=EDGE_CURVE('',#168,#165,#198,.T.);
#127=EDGE_CURVE('',#166,#169,#12,.T.);
#128=EDGE_CURVE('',#170,#169,#199,.T.);
#129=EDGE_CURVE('',#167,#170,#13,.T.);
#130=EDGE_CURVE('',#171,#169,#200,.T.);
#131=EDGE_CURVE('',#172,#171,#201,.T.);
#132=EDGE_CURVE('',#172,#170,#202,.T.);
#133=EDGE_CURVE('',#171,#173,#14,.T.);
#134=EDGE_CURVE('',#174,#173,#203,.T.);
#135=EDGE_CURVE('',#172,#174,#15,.T.);
#136=EDGE_CURVE('',#175,#173,#204,.T.);
#137=EDGE_CURVE('',#176,#175,#205,.T.);
#138=EDGE_CURVE('',#176,#174,#206,.T.);
#139=EDGE_CURVE('',#175,#177,#16,.T.);
#140=EDGE_CURVE('',#178,#177,#207,.T.);
#141=EDGE_CURVE('',#176,#178,#17,.T.);
#142=EDGE_CURVE('',#177,#179,#208,.T.);
#143=EDGE_CURVE('',#180,#179,#209,.T.);
#144=EDGE_CURVE('',#178,#180,#210,.T.);
#145=EDGE_CURVE('',#181,#179,#18,.T.);
#146=EDGE_CURVE('',#182,#181,#211,.T.);
#147=EDGE_CURVE('',#182,#180,#19,.T.);
#148=EDGE_CURVE('',#183,#181,#212,.T.);
#149=EDGE_CURVE('',#184,#183,#213,.T.);
#150=EDGE_CURVE('',#184,#182,#214,.T.);
#151=EDGE_CURVE('',#183,#185,#20,.T.);
#152=EDGE_CURVE('',#186,#185,#215,.T.);
#153=EDGE_CURVE('',#184,#186,#21,.T.);
#154=EDGE_CURVE('',#185,#187,#216,.T.);
#155=EDGE_CURVE('',#188,#187,#217,.T.);
#156=EDGE_CURVE('',#186,#188,#218,.T.);
#157=EDGE_CURVE('',#189,#189,#22,.T.);
#158=EDGE_CURVE('',#190,#190,#23,.T.);
#159=EDGE_CURVE('',#191,#191,#24,.T.);
#160=EDGE_CURVE('',#192,#192,#25,.T.);
#161=EDGE_CURVE('',#193,#193,#26,.T.);
#162=EDGE_CURVE('',#194,#194,#27,.T.);
#163=EDGE_CURVE('',#187,#165,#28,.T.);
#164=EDGE_CURVE('',#188,#168,#29,.T.);
#165=VERTEX_POINT('',#467);
#166=VERTEX_POINT('',#468);
#167=VERTEX_POINT('',#470);
#168=VERTEX_POINT('',#472);
#169=VERTEX_POINT('',#476);
#170=VERTEX_POINT('',#478);
#171=VERTEX_POINT('',#482);
#172=VERTEX_POINT('',#484);
#173=VERTEX_POINT('',#488);
#174=VERTEX_POINT('',#490);
#175=VERTEX_POINT('',#494);
#176=VERTEX_POINT('',#496);
#177=VERTEX_POINT('',#500);
#178=VERTEX_POINT('',#502);
#179=VERTEX_POINT('',#506);
#180=VERTEX_POINT('',#508);
#181=VERTEX_POINT('',#512);
#182=VERTEX_POINT('',#514);
#183=VERTEX_POINT('',#518);
#184=VERTEX_POINT('',#520);
#185=VERTEX_POINT('',#524);
#186=VERTEX_POINT('',#526);
#187=VERTEX_POINT('',#530);
#188=VERTEX_POINT('',#532);
#189=VERTEX_POINT('',#536);
#190=VERTEX_POINT('',#538);
#191=VERTEX_POINT('',#541);
#192=VERTEX_POINT('',#543);
#193=VERTEX_POINT('',#546);
#194=VERTEX_POINT('',#548);
#195=LINE('',#466,#219);
#196=LINE('',#469,#220);
#197=LINE('',#471,#221);
#198=LINE('',#473,#222);
#199=LINE('',#477,#223);
#200=LINE('',#481,#224);
#201=LINE('',#483,#225);
#202=LINE('',#485,#226);
#203=LINE('',#489,#227);
#204=LINE('',#493,#228);
#205=LINE('',#495,#229);
#206=LINE('',#497,#230);
#207=LINE('',#501,#231);
#208=LINE('',#505,#232);
#209=LINE('',#507,#233);
#210=LINE('',#509,#234);
#211=LINE('',#513,#235);
#212=LINE('',#517,#236);
#213=LINE('',#519,#237);
#214=LINE('',#521,#238);
#215=LINE('',#525,#239);
#216=LINE('',#529,#240);
#217=LINE('',#531,#241);
#218=LINE('',#533,#242);
#219=VECTOR('',#372,1.);
#220=VECTOR('',#373,1.);
#221=VECTOR('',#374,1.);
#222=VECTOR('',#375,1.);
#223=VECTOR('',#380,1.);
#224=VECTOR('',#385,1.);
#225=VECTOR('',#386,1.);
#226=VECTOR('',#387,1.);
#227=VECTOR('',#392,1.);
#228=VECTOR('',#397,1.);
#229=VECTOR('',#398,1.);
#230=VECTOR('',#399,1.);
#231=VECTOR('',#404,1.);
#232=VECTOR('',#409,1.);
#233=VECTOR('',#410,1.);
#234=VECTOR('',#411,1.);
#235=VECTOR('',#416,1.);
#236=VECTOR('',#421,1.);
#237=VECTOR('',#422,1.);
#238=VECTOR('',#423,1.);
#239=VECTOR('',#428,1.);
#240=VECTOR('',#433,1.);
#241=VECTOR('',#434,1.);
#242=VECTOR('',#435,1.);
#243=EDGE_LOOP('',(#39,#40,#41,#42));
#244=EDGE_LOOP('',(#43,#44,#45,#46));
#245=EDGE_LOOP('',(#47,#48,#49,#50));
#246=EDGE_LOOP('',(#51,#52,#53,#54));
#247=EDGE_LOOP('',(#55,#56,#57,#58));
#248=EDGE_LOOP('',(#59,#60,#61,#62));
#249=EDGE_LOOP('',(#63,#64,#65,#66));
#250=EDGE_LOOP('',(#67,#68,#69,#70));
#251=EDGE_LOOP('',(#71,#72,#73,#74));
#252=EDGE_LOOP('',(#75,#76,#77,#78));
#253=EDGE_LOOP('',(#79,#80,#81,#82));
#254=EDGE_LOOP('',(#83));
#255=EDGE_LOOP('',(#84));
#256=EDGE_LOOP('',(#85));
#257=EDGE_LOOP('',(#86));
#258=EDGE_LOOP('',(#87));
#259=EDGE_LOOP('',(#88));
#260=EDGE_LOOP('',(#89,#90,#91,#92));
#261=EDGE_LOOP('',(#93));
#262=EDGE_LOOP('',(#94));
#263=EDGE_LOOP('',(#95));
#264=EDGE_LOOP('',(#96,#97,#98,#99,#100,#101,#102,#103,#104,#105,#106,#107));
#265=EDGE_LOOP('',(#108));
#266=EDGE_LOOP('',(#109));
#267=EDGE_LOOP('',(#110));
#268=EDGE_LOOP('',(#111,#112,#113,#114,#115,#116,#117,#118,#119,#120,#121,
#122));
#269=FACE_BOUND('',#243,.T.);
#270=FACE_BOUND('',#244,.T.);
#271=FACE_BOUND('',#245,.T.);
#272=FACE_BOUND('',#246,.T.);
#273=FACE_BOUND('',#247,.T.);
#274=FACE_BOUND('',#248,.T.);
#275=FACE_BOUND('',#249,.T.);
#276=FACE_BOUND('',#250,.T.);
#277=FACE_BOUND('',#251,.T.);
#278=FACE_BOUND('',#252,.T.);
#279=FACE_BOUND('',#253,.T.);
#280=FACE_BOUND('',#254,.T.);
#281=FACE_BOUND('',#255,.T.);
#282=FACE_BOUND('',#256,.T.);
#283=FACE_BOUND('',#257,.T.);
#284=FACE_BOUND('',#258,.T.);
#285=FACE_BOUND('',#259,.T.);
#286=FACE_BOUND('',#260,.T.);
#287=FACE_BOUND('',#261,.T.);
#288=FACE_BOUND('',#262,.T.);
#289=FACE_BOUND('',#263,.T.);
#290=FACE_BOUND('',#264,.T.);
#291=FACE_BOUND('',#265,.T.);
#292=FACE_BOUND('',#266,.T.);
#293=FACE_BOUND('',#267,.T.);
#294=FACE_BOUND('',#268,.T.);
#295=PLANE('',#333);
#296=PLANE('',#337);
#297=PLANE('',#341);
#298=PLANE('',#345);
#299=PLANE('',#349);
#300=PLANE('',#353);
#301=PLANE('',#366);
#302=PLANE('',#367);
#303=ADVANCED_FACE('',(#269),#295,.F.);
#304=ADVANCED_FACE('',(#270),#30,.T.);
#305=ADVANCED_FACE('',(#271),#296,.T.);
#306=ADVANCED_FACE('',(#272),#31,.T.);
#307=ADVANCED_FACE('',(#273),#297,.T.);
#308=ADVANCED_FACE('',(#274),#32,.T.);
#309=ADVANCED_FACE('',(#275),#298,.F.);
#310=ADVANCED_FACE('',(#276),#33,.F.);
#311=ADVANCED_FACE('',(#277),#299,.T.);
#312=ADVANCED_FACE('',(#278),#34,.T.);
#313=ADVANCED_FACE('',(#279),#300,.F.);
#314=ADVANCED_FACE('',(#280,#281),#35,.F.);
#315=ADVANCED_FACE('',(#282,#283),#36,.F.);
#316=ADVANCED_FACE('',(#284,#285),#37,.F.);
#317=ADVANCED_FACE('',(#286),#38,.T.);
#318=ADVANCED_FACE('',(#287,#288,#289,#290),#301,.T.);
#319=ADVANCED_FACE('',(#291,#292,#293,#294),#302,.F.);
#320=CLOSED_SHELL('',(#303,#304,#305,#306,#307,#308,#309,#310,#311,#312,
#313,#314,#315,#316,#317,#318,#319));
#321=STYLED_ITEM('',(#322),#329);
#322=PRESENTATION_STYLE_ASSIGNMENT((#323));
#323=SURFACE_STYLE_USAGE(.BOTH.,#324);
#324=SURFACE_SIDE_STYLE('',(#325));
#325=SURFACE_STYLE_FILL_AREA(#326);
#326=FILL_AREA_STYLE('',(#327));
#327=FILL_AREA_STYLE_COLOUR('',#328);
#328=COLOUR_RGB('',0.501960784313726,0.501960784313726,0.501960784313726);
#329=MANIFOLD_SOLID_BREP('DSCP056-E125',#320);
#330=SHAPE_DEFINITION_REPRESENTATION(#560,#331);
#331=SHAPE_REPRESENTATION('DSCP056-E125',(#332),#555);
#332=AXIS2_PLACEMENT_3D('',#464,#368,#369);
#333=AXIS2_PLACEMENT_3D('',#465,#370,#371);
#334=AXIS2_PLACEMENT_3D('',#474,#376,#377);
#335=AXIS2_PLACEMENT_3D('',#475,#378,#379);
#336=AXIS2_PLACEMENT_3D('',#479,#381,#382);
#337=AXIS2_PLACEMENT_3D('',#480,#383,#384);
#338=AXIS2_PLACEMENT_3D('',#486,#388,#389);
#339=AXIS2_PLACEMENT_3D('',#487,#390,#391);
#340=AXIS2_PLACEMENT_3D('',#491,#393,#394);
#341=AXIS2_PLACEMENT_3D('',#492,#395,#396);
#342=AXIS2_PLACEMENT_3D('',#498,#400,#401);
#343=AXIS2_PLACEMENT_3D('',#499,#402,#403);
#344=AXIS2_PLACEMENT_3D('',#503,#405,#406);
#345=AXIS2_PLACEMENT_3D('',#504,#407,#408);
#346=AXIS2_PLACEMENT_3D('',#510,#412,#413);
#347=AXIS2_PLACEMENT_3D('',#511,#414,#415);
#348=AXIS2_PLACEMENT_3D('',#515,#417,#418);
#349=AXIS2_PLACEMENT_3D('',#516,#419,#420);
#350=AXIS2_PLACEMENT_3D('',#522,#424,#425);
#351=AXIS2_PLACEMENT_3D('',#523,#426,#427);
#352=AXIS2_PLACEMENT_3D('',#527,#429,#430);
#353=AXIS2_PLACEMENT_3D('',#528,#431,#432);
#354=AXIS2_PLACEMENT_3D('',#534,#436,#437);
#355=AXIS2_PLACEMENT_3D('',#535,#438,#439);
#356=AXIS2_PLACEMENT_3D('',#537,#440,#441);
#357=AXIS2_PLACEMENT_3D('',#539,#442,#443);
#358=AXIS2_PLACEMENT_3D('',#540,#444,#445);
#359=AXIS2_PLACEMENT_3D('',#542,#446,#447);
#360=AXIS2_PLACEMENT_3D('',#544,#448,#449);
#361=AXIS2_PLACEMENT_3D('',#545,#450,#451);
#362=AXIS2_PLACEMENT_3D('',#547,#452,#453);
#363=AXIS2_PLACEMENT_3D('',#549,#454,#455);
#364=AXIS2_PLACEMENT_3D('',#550,#456,#457);
#365=AXIS2_PLACEMENT_3D('',#551,#458,#459);
#366=AXIS2_PLACEMENT_3D('',#552,#460,#461);
#367=AXIS2_PLACEMENT_3D('',#553,#462,#463);
#368=DIRECTION('',(0.,0.,1.));
#369=DIRECTION('',(1.,0.,0.));
#370=DIRECTION('',(1.03872547287615E-16,-1.,0.));
#371=DIRECTION('',(1.,1.03872547287615E-16,0.));
#372=DIRECTION('',(-1.,-1.03872547287615E-16,0.));
#373=DIRECTION('',(0.,0.,-1.));
#374=DIRECTION('',(-1.,-1.03872547287615E-16,0.));
#375=DIRECTION('',(0.,0.,-1.));
#376=DIRECTION('',(0.,0.,-1.));
#377=DIRECTION('',(-1.,0.,0.));
#378=DIRECTION('',(0.,0.,1.));
#379=DIRECTION('',(1.,0.,0.));
#380=DIRECTION('',(0.,0.,-1.));
#381=DIRECTION('',(0.,0.,1.));
#382=DIRECTION('',(1.,0.,0.));
#383=DIRECTION('',(-1.,0.,0.));
#384=DIRECTION('',(0.,0.,1.));
#385=DIRECTION('',(0.,1.,0.));
#386=DIRECTION('',(0.,0.,-1.));
#387=DIRECTION('',(0.,1.,0.));
#388=DIRECTION('',(0.,0.,-1.));
#389=DIRECTION('',(-1.,0.,0.));
#390=DIRECTION('',(0.,0.,1.));
#391=DIRECTION('',(1.,0.,0.));
#392=DIRECTION('',(0.,0.,-1.));
#393=DIRECTION('',(0.,0.,1.));
#394=DIRECTION('',(1.,0.,0.));
#395=DIRECTION('',(0.,-1.,0.));
#396=DIRECTION('',(0.,0.,-1.));
#397=DIRECTION('',(-1.,0.,0.));
#398=DIRECTION('',(0.,0.,-1.));
#399=DIRECTION('',(-1.,0.,0.));
#400=DIRECTION('',(0.,0.,-1.));
#401=DIRECTION('',(-1.,0.,0.));
#402=DIRECTION('',(0.,0.,1.));
#403=DIRECTION('',(1.,0.,0.));
#404=DIRECTION('',(0.,0.,-1.));
#405=DIRECTION('',(0.,0.,1.));
#406=DIRECTION('',(1.,0.,0.));
#407=DIRECTION('',(-1.,0.,0.));
#408=DIRECTION('',(0.,0.,1.));
#409=DIRECTION('',(0.,1.,0.));
#410=DIRECTION('',(0.,0.,-1.));
#411=DIRECTION('',(0.,1.,0.));
#412=DIRECTION('',(0.,0.,-1.));
#413=DIRECTION('',(-1.,0.,0.));
#414=DIRECTION('',(0.,0.,1.));
#415=DIRECTION('',(1.,0.,0.));
#416=DIRECTION('',(0.,0.,-1.));
#417=DIRECTION('',(0.,0.,1.));
#418=DIRECTION('',(1.,0.,0.));
#419=DIRECTION('',(1.18569791391678E-16,-1.,0.));
#420=DIRECTION('',(1.,1.18569791391678E-16,0.));
#421=DIRECTION('',(-1.,-1.18569791391678E-16,0.));
#422=DIRECTION('',(0.,0.,-1.));
#423=DIRECTION('',(-1.,-1.18569791391678E-16,0.));
#424=DIRECTION('',(0.,0.,-1.));
#425=DIRECTION('',(-1.,0.,0.));
#426=DIRECTION('',(0.,0.,1.));
#427=DIRECTION('',(1.,0.,0.));
#428=DIRECTION('',(0.,0.,-1.));
#429=DIRECTION('',(0.,0.,1.));
#430=DIRECTION('',(1.,0.,0.));
#431=DIRECTION('',(-1.,0.,0.));
#432=DIRECTION('',(0.,0.,1.));
#433=DIRECTION('',(0.,1.,0.));
#434=DIRECTION('',(0.,0.,-1.));
#435=DIRECTION('',(0.,1.,0.));
#436=DIRECTION('',(0.,0.,-1.));
#437=DIRECTION('',(-1.,0.,0.));
#438=DIRECTION('',(0.,0.,1.));
#439=DIRECTION('',(1.,0.,0.));
#440=DIRECTION('',(0.,0.,1.));
#441=DIRECTION('',(1.,0.,0.));
#442=DIRECTION('',(0.,0.,-1.));
#443=DIRECTION('',(-1.,0.,0.));
#444=DIRECTION('',(0.,0.,1.));
#445=DIRECTION('',(1.,0.,0.));
#446=DIRECTION('',(0.,0.,1.));
#447=DIRECTION('',(1.,0.,0.));
#448=DIRECTION('',(0.,0.,-1.));
#449=DIRECTION('',(-1.,0.,0.));
#450=DIRECTION('',(0.,0.,1.));
#451=DIRECTION('',(1.,0.,0.));
#452=DIRECTION('',(0.,0.,1.));
#453=DIRECTION('',(1.,0.,0.));
#454=DIRECTION('',(0.,0.,-1.));
#455=DIRECTION('',(-1.,0.,0.));
#456=DIRECTION('',(0.,0.,1.));
#457=DIRECTION('',(1.,0.,0.));
#458=DIRECTION('',(0.,0.,1.));
#459=DIRECTION('',(1.,0.,0.));
#460=DIRECTION('',(0.,0.,1.));
#461=DIRECTION('',(1.,0.,0.));
#462=DIRECTION('',(0.,0.,1.));
#463=DIRECTION('',(1.,0.,0.));
#464=CARTESIAN_POINT('',(0.,0.,0.));
#465=CARTESIAN_POINT('',(0.,0.027051,0.003175));
#466=CARTESIAN_POINT('',(0.,0.027051,0.));
#467=CARTESIAN_POINT('',(0.033401,0.027051,0.));
#468=CARTESIAN_POINT('',(-0.033401,0.027051,0.));
#469=CARTESIAN_POINT('',(-0.033401,0.027051,0.003175));
#470=CARTESIAN_POINT('',(-0.033401,0.027051,0.003175));
#471=CARTESIAN_POINT('',(0.,0.027051,0.003175));
#472=CARTESIAN_POINT('',(0.033401,0.027051,0.003175));
#473=CARTESIAN_POINT('',(0.033401,0.027051,0.003175));
#474=CARTESIAN_POINT('',(-0.033401,0.023876,0.003175));
#475=CARTESIAN_POINT('',(-0.033401,0.023876,0.));
#476=CARTESIAN_POINT('',(-0.036576,0.023876,0.));
#477=CARTESIAN_POINT('',(-0.036576,0.023876,0.003175));
#478=CARTESIAN_POINT('',(-0.036576,0.023876,0.003175));
#479=CARTESIAN_POINT('',(-0.033401,0.023876,0.003175));
#480=CARTESIAN_POINT('',(-0.036576,-3.46944695195361E-18,0.003175));
#481=CARTESIAN_POINT('',(-0.036576,-3.46944695195361E-18,0.));
#482=CARTESIAN_POINT('',(-0.036576,-0.023876,0.));
#483=CARTESIAN_POINT('',(-0.036576,-0.023876,0.003175));
#484=CARTESIAN_POINT('',(-0.036576,-0.023876,0.003175));
#485=CARTESIAN_POINT('',(-0.036576,-3.46944695195361E-18,0.003175));
#486=CARTESIAN_POINT('',(-0.033401,-0.023876,0.003175));
#487=CARTESIAN_POINT('',(-0.033401,-0.023876,0.));
#488=CARTESIAN_POINT('',(-0.033401,-0.027051,0.));
#489=CARTESIAN_POINT('',(-0.033401,-0.027051,0.003175));
#490=CARTESIAN_POINT('',(-0.033401,-0.027051,0.003175));
#491=CARTESIAN_POINT('',(-0.033401,-0.023876,0.003175));
#492=CARTESIAN_POINT('',(-0.02921,-0.027051,0.003175));
#493=CARTESIAN_POINT('',(-0.02921,-0.027051,0.));
#494=CARTESIAN_POINT('',(-0.025019,-0.027051,0.));
#495=CARTESIAN_POINT('',(-0.025019,-0.027051,0.003175));
#496=CARTESIAN_POINT('',(-0.025019,-0.027051,0.003175));
#497=CARTESIAN_POINT('',(-0.02921,-0.027051,0.003175));
#498=CARTESIAN_POINT('',(-0.025019,-0.023876,0.003175));
#499=CARTESIAN_POINT('',(-0.025019,-0.023876,0.));
#500=CARTESIAN_POINT('',(-0.021844,-0.023876,0.));
#501=CARTESIAN_POINT('',(-0.021844,-0.023876,0.003175));
#502=CARTESIAN_POINT('',(-0.021844,-0.023876,0.003175));
#503=CARTESIAN_POINT('',(-0.025019,-0.023876,0.003175));
#504=CARTESIAN_POINT('',(-0.021844,-0.015875,0.003175));
#505=CARTESIAN_POINT('',(-0.021844,-0.015875,0.));
#506=CARTESIAN_POINT('',(-0.021844,-0.007874,0.));
#507=CARTESIAN_POINT('',(-0.021844,-0.007874,0.003175));
#508=CARTESIAN_POINT('',(-0.021844,-0.007874,0.003175));
#509=CARTESIAN_POINT('',(-0.021844,-0.015875,0.003175));
#510=CARTESIAN_POINT('',(-0.012319,-0.007874,0.003175));
#511=CARTESIAN_POINT('',(-0.012319,-0.007874,0.));
#512=CARTESIAN_POINT('',(-0.012319,0.001651,0.));
#513=CARTESIAN_POINT('',(-0.012319,0.001651,0.003175));
#514=CARTESIAN_POINT('',(-0.012319,0.001651,0.003175));
#515=CARTESIAN_POINT('',(-0.012319,-0.007874,0.003175));
#516=CARTESIAN_POINT('',(0.010541,0.001651,0.003175));
#517=CARTESIAN_POINT('',(0.010541,0.001651,0.));
#518=CARTESIAN_POINT('',(0.033401,0.001651,0.));
#519=CARTESIAN_POINT('',(0.033401,0.001651,0.003175));
#520=CARTESIAN_POINT('',(0.033401,0.001651,0.003175));
#521=CARTESIAN_POINT('',(0.010541,0.001651,0.003175));
#522=CARTESIAN_POINT('',(0.033401,0.004826,0.003175));
#523=CARTESIAN_POINT('',(0.033401,0.004826,0.));
#524=CARTESIAN_POINT('',(0.036576,0.004826,0.));
#525=CARTESIAN_POINT('',(0.036576,0.004826,0.003175));
#526=CARTESIAN_POINT('',(0.036576,0.004826,0.003175));
#527=CARTESIAN_POINT('',(0.033401,0.004826,0.003175));
#528=CARTESIAN_POINT('',(0.036576,0.014351,0.003175));
#529=CARTESIAN_POINT('',(0.036576,0.014351,0.));
#530=CARTESIAN_POINT('',(0.036576,0.023876,0.));
#531=CARTESIAN_POINT('',(0.036576,0.023876,0.003175));
#532=CARTESIAN_POINT('',(0.036576,0.023876,0.003175));
#533=CARTESIAN_POINT('',(0.036576,0.014351,0.003175));
#534=CARTESIAN_POINT('',(0.019304,0.014351,0.003175));
#535=CARTESIAN_POINT('',(0.019304,0.014351,0.003175));
#536=CARTESIAN_POINT('',(0.026035,0.014351,0.003175));
#537=CARTESIAN_POINT('',(0.019304,0.014351,0.));
#538=CARTESIAN_POINT('',(0.026035,0.014351,0.));
#539=CARTESIAN_POINT('',(-0.021336,0.014351,0.003175));
#540=CARTESIAN_POINT('',(-0.021336,0.014351,0.003175));
#541=CARTESIAN_POINT('',(-0.014605,0.014351,0.003175));
#542=CARTESIAN_POINT('',(-0.021336,0.014351,0.));
#543=CARTESIAN_POINT('',(-0.014605,0.014351,0.));
#544=CARTESIAN_POINT('',(-0.029972,-0.016637,0.003175));
#545=CARTESIAN_POINT('',(-0.029972,-0.016637,0.003175));
#546=CARTESIAN_POINT('',(-0.026797,-0.016637,0.003175));
#547=CARTESIAN_POINT('',(-0.029972,-0.016637,0.));
#548=CARTESIAN_POINT('',(-0.026797,-0.016637,0.));
#549=CARTESIAN_POINT('',(0.033401,0.023876,0.003175));
#550=CARTESIAN_POINT('',(0.033401,0.023876,0.));
#551=CARTESIAN_POINT('',(0.033401,0.023876,0.003175));
#552=CARTESIAN_POINT('',(0.,0.,0.003175));
#553=CARTESIAN_POINT('',(0.,0.,0.));
#554=MECHANICAL_DESIGN_GEOMETRIC_PRESENTATION_REPRESENTATION('',(#321),
#555);
#555=(
GEOMETRIC_REPRESENTATION_CONTEXT(3)
GLOBAL_UNCERTAINTY_ASSIGNED_CONTEXT((#556))
GLOBAL_UNIT_ASSIGNED_CONTEXT((#559,#558,#557))
REPRESENTATION_CONTEXT('DSCP056-E125','TOP_LEVEL_ASSEMBLY_PART')
);
#556=UNCERTAINTY_MEASURE_WITH_UNIT(LENGTH_MEASURE(5.E-6),#559,
'DISTANCE_ACCURACY_VALUE','Maximum Tolerance applied to model');
#557=(
NAMED_UNIT(*)
SI_UNIT($,.STERADIAN.)
SOLID_ANGLE_UNIT()
);
#558=(
NAMED_UNIT(*)
PLANE_ANGLE_UNIT()
SI_UNIT($,.RADIAN.)
);
#559=(
LENGTH_UNIT()
NAMED_UNIT(*)
SI_UNIT($,.METRE.)
);
#560=PRODUCT_DEFINITION_SHAPE('','',#561);
#561=PRODUCT_DEFINITION('','',#563,#562);
#562=PRODUCT_DEFINITION_CONTEXT('',#569,'design');
#563=PRODUCT_DEFINITION_FORMATION_WITH_SPECIFIED_SOURCE('','',#565,
 .NOT_KNOWN.);
#564=PRODUCT_RELATED_PRODUCT_CATEGORY('','',(#565));
#565=PRODUCT('DSCP056-E125','DSCP056-E125','DSCP056-E125',(#567));
#566=PRODUCT_CATEGORY('','');
#567=PRODUCT_CONTEXT('',#569,'mechanical');
#568=APPLICATION_PROTOCOL_DEFINITION('international standard',
'ap242_managed_model_based_3d_engineering',2011,#569);
#569=APPLICATION_CONTEXT('managed model based 3d engineering');
ENDSEC;
END-ISO-10303-21;
