ISO-10303-21;
HEADER;
/* Generated by software containing ST-Developer
 * from STEP Tools, Inc. (www.steptools.com) 
 */
/* OPTION: using custom renumber hook */

FILE_DESCRIPTION(
/* description */ ('STEP AP242',
'CAx-IF Rec.Pracs.---Representation and Presentation of Product Manufa
cturing Information (PMI)---4.0---2014-10-13',
'CAx-IF Rec.Pracs.---3D Tessellated Geometry---0.4---2014-09-14','2;1'),

/* implementation_level */ '2;1');

FILE_NAME(
/* name */ '6296a17e13d5c035eb5d8903',
/* time_stamp */ '2022-05-31T23:15:10+00:00',
/* author */ (''),
/* organization */ (''),
/* preprocessor_version */ 'ST-DEVELOPER v18.102',
/* originating_system */ '  ',
/* authorisation */ '  ');

FILE_SCHEMA (('AP242_MANAGED_MODEL_BASED_3D_ENGINEERING_MIM_LF { 1 0 10303 442 1 1 4 }'));
ENDSEC;

DATA;
#10=SHAPE_REPRESENTATION_RELATIONSHIP('','',#107,#11);
#11=ADVANCED_BREP_SHAPE_REPRESENTATION('',(#105),#177);
#12=PLANE('',#121);
#13=PLANE('',#122);
#14=ORIENTED_EDGE('',*,*,#30,.T.);
#15=ORIENTED_EDGE('',*,*,#31,.F.);
#16=ORIENTED_EDGE('',*,*,#32,.T.);
#17=ORIENTED_EDGE('',*,*,#33,.F.);
#18=ORIENTED_EDGE('',*,*,#34,.T.);
#19=ORIENTED_EDGE('',*,*,#35,.F.);
#20=ORIENTED_EDGE('',*,*,#36,.F.);
#21=ORIENTED_EDGE('',*,*,#37,.T.);
#22=ORIENTED_EDGE('',*,*,#34,.F.);
#23=ORIENTED_EDGE('',*,*,#32,.F.);
#24=ORIENTED_EDGE('',*,*,#30,.F.);
#25=ORIENTED_EDGE('',*,*,#36,.T.);
#26=ORIENTED_EDGE('',*,*,#35,.T.);
#27=ORIENTED_EDGE('',*,*,#33,.T.);
#28=ORIENTED_EDGE('',*,*,#31,.T.);
#29=ORIENTED_EDGE('',*,*,#37,.F.);
#30=EDGE_CURVE('',#38,#38,#46,.T.);
#31=EDGE_CURVE('',#39,#39,#47,.T.);
#32=EDGE_CURVE('',#40,#40,#48,.T.);
#33=EDGE_CURVE('',#41,#41,#49,.T.);
#34=EDGE_CURVE('',#42,#42,#50,.T.);
#35=EDGE_CURVE('',#43,#43,#51,.T.);
#36=EDGE_CURVE('',#44,#44,#52,.T.);
#37=EDGE_CURVE('',#45,#45,#53,.T.);
#38=VERTEX_POINT('',#156);
#39=VERTEX_POINT('',#158);
#40=VERTEX_POINT('',#161);
#41=VERTEX_POINT('',#163);
#42=VERTEX_POINT('',#166);
#43=VERTEX_POINT('',#168);
#44=VERTEX_POINT('',#171);
#45=VERTEX_POINT('',#173);
#46=CIRCLE('',#110,0.018288);
#47=CIRCLE('',#111,0.018288);
#48=CIRCLE('',#113,0.004318);
#49=CIRCLE('',#114,0.004318);
#50=CIRCLE('',#116,0.004318);
#51=CIRCLE('',#117,0.004318);
#52=CIRCLE('',#119,0.033274);
#53=CIRCLE('',#120,0.033274);
#54=EDGE_LOOP('',(#14));
#55=EDGE_LOOP('',(#15));
#56=EDGE_LOOP('',(#16));
#57=EDGE_LOOP('',(#17));
#58=EDGE_LOOP('',(#18));
#59=EDGE_LOOP('',(#19));
#60=EDGE_LOOP('',(#20));
#61=EDGE_LOOP('',(#21));
#62=EDGE_LOOP('',(#22));
#63=EDGE_LOOP('',(#23));
#64=EDGE_LOOP('',(#24));
#65=EDGE_LOOP('',(#25));
#66=EDGE_LOOP('',(#26));
#67=EDGE_LOOP('',(#27));
#68=EDGE_LOOP('',(#28));
#69=EDGE_LOOP('',(#29));
#70=FACE_BOUND('',#54,.T.);
#71=FACE_BOUND('',#55,.T.);
#72=FACE_BOUND('',#56,.T.);
#73=FACE_BOUND('',#57,.T.);
#74=FACE_BOUND('',#58,.T.);
#75=FACE_BOUND('',#59,.T.);
#76=FACE_BOUND('',#60,.T.);
#77=FACE_BOUND('',#61,.T.);
#78=FACE_BOUND('',#62,.T.);
#79=FACE_BOUND('',#63,.T.);
#80=FACE_BOUND('',#64,.T.);
#81=FACE_BOUND('',#65,.T.);
#82=FACE_BOUND('',#66,.T.);
#83=FACE_BOUND('',#67,.T.);
#84=FACE_BOUND('',#68,.T.);
#85=FACE_BOUND('',#69,.T.);
#86=CYLINDRICAL_SURFACE('',#109,0.018288);
#87=CYLINDRICAL_SURFACE('',#112,0.004318);
#88=CYLINDRICAL_SURFACE('',#115,0.004318);
#89=CYLINDRICAL_SURFACE('',#118,0.033274);
#90=ADVANCED_FACE('',(#70,#71),#86,.F.);
#91=ADVANCED_FACE('',(#72,#73),#87,.F.);
#92=ADVANCED_FACE('',(#74,#75),#88,.F.);
#93=ADVANCED_FACE('',(#76,#77),#89,.T.);
#94=ADVANCED_FACE('',(#78,#79,#80,#81),#12,.T.);
#95=ADVANCED_FACE('',(#82,#83,#84,#85),#13,.F.);
#96=CLOSED_SHELL('',(#90,#91,#92,#93,#94,#95));
#97=STYLED_ITEM('',(#98),#105);
#98=PRESENTATION_STYLE_ASSIGNMENT((#99));
#99=SURFACE_STYLE_USAGE(.BOTH.,#100);
#100=SURFACE_SIDE_STYLE('',(#101));
#101=SURFACE_STYLE_FILL_AREA(#102);
#102=FILL_AREA_STYLE('',(#103));
#103=FILL_AREA_STYLE_COLOUR('',#104);
#104=COLOUR_RGB('',0.498039215686275,0.498039215686275,0.498039215686275);
#105=MANIFOLD_SOLID_BREP('DSCP079-E250',#96);
#106=SHAPE_DEFINITION_REPRESENTATION(#182,#107);
#107=SHAPE_REPRESENTATION('DSCP079-E250',(#108),#177);
#108=AXIS2_PLACEMENT_3D('',#153,#123,#124);
#109=AXIS2_PLACEMENT_3D('',#154,#125,#126);
#110=AXIS2_PLACEMENT_3D('',#155,#127,#128);
#111=AXIS2_PLACEMENT_3D('',#157,#129,#130);
#112=AXIS2_PLACEMENT_3D('',#159,#131,#132);
#113=AXIS2_PLACEMENT_3D('',#160,#133,#134);
#114=AXIS2_PLACEMENT_3D('',#162,#135,#136);
#115=AXIS2_PLACEMENT_3D('',#164,#137,#138);
#116=AXIS2_PLACEMENT_3D('',#165,#139,#140);
#117=AXIS2_PLACEMENT_3D('',#167,#141,#142);
#118=AXIS2_PLACEMENT_3D('',#169,#143,#144);
#119=AXIS2_PLACEMENT_3D('',#170,#145,#146);
#120=AXIS2_PLACEMENT_3D('',#172,#147,#148);
#121=AXIS2_PLACEMENT_3D('',#174,#149,#150);
#122=AXIS2_PLACEMENT_3D('',#175,#151,#152);
#123=DIRECTION('',(0.,0.,1.));
#124=DIRECTION('',(1.,0.,0.));
#125=DIRECTION('',(0.,0.,-1.));
#126=DIRECTION('',(-1.,0.,0.));
#127=DIRECTION('',(0.,0.,1.));
#128=DIRECTION('',(1.,0.,0.));
#129=DIRECTION('',(0.,0.,1.));
#130=DIRECTION('',(1.,0.,0.));
#131=DIRECTION('',(0.,0.,-1.));
#132=DIRECTION('',(-1.,0.,0.));
#133=DIRECTION('',(0.,0.,1.));
#134=DIRECTION('',(1.,0.,0.));
#135=DIRECTION('',(0.,0.,1.));
#136=DIRECTION('',(1.,0.,0.));
#137=DIRECTION('',(0.,0.,-1.));
#138=DIRECTION('',(-1.,0.,0.));
#139=DIRECTION('',(0.,0.,1.));
#140=DIRECTION('',(1.,0.,0.));
#141=DIRECTION('',(0.,0.,1.));
#142=DIRECTION('',(1.,0.,0.));
#143=DIRECTION('',(0.,0.,-1.));
#144=DIRECTION('',(-1.,0.,0.));
#145=DIRECTION('',(0.,0.,1.));
#146=DIRECTION('',(1.,0.,0.));
#147=DIRECTION('',(0.,0.,1.));
#148=DIRECTION('',(1.,0.,0.));
#149=DIRECTION('',(0.,0.,1.));
#150=DIRECTION('',(1.,0.,0.));
#151=DIRECTION('',(0.,0.,1.));
#152=DIRECTION('',(1.,0.,0.));
#153=CARTESIAN_POINT('',(0.,0.,0.));
#154=CARTESIAN_POINT('',(0.,1.11981703314034E-18,0.00635));
#155=CARTESIAN_POINT('',(0.,1.11981703314034E-18,0.00635));
#156=CARTESIAN_POINT('',(0.018288,1.11981703314034E-18,0.00635));
#157=CARTESIAN_POINT('',(0.,1.11981703314034E-18,0.));
#158=CARTESIAN_POINT('',(0.018288,1.11981703314034E-18,0.));
#159=CARTESIAN_POINT('',(0.,0.0254,0.00635));
#160=CARTESIAN_POINT('',(0.,0.0254,0.00635));
#161=CARTESIAN_POINT('',(0.004318,0.0254,0.00635));
#162=CARTESIAN_POINT('',(0.,0.0254,0.));
#163=CARTESIAN_POINT('',(0.004318,0.0254,0.));
#164=CARTESIAN_POINT('',(0.,-0.0254,0.00635));
#165=CARTESIAN_POINT('',(0.,-0.0254,0.00635));
#166=CARTESIAN_POINT('',(0.004318,-0.0254,0.00635));
#167=CARTESIAN_POINT('',(0.,-0.0254,0.));
#168=CARTESIAN_POINT('',(0.004318,-0.0254,0.));
#169=CARTESIAN_POINT('',(0.,2.03744487974145E-18,0.00635));
#170=CARTESIAN_POINT('',(0.,2.03744487974145E-18,0.00635));
#171=CARTESIAN_POINT('',(0.033274,2.03744487974145E-18,0.00635));
#172=CARTESIAN_POINT('',(0.,2.03744487974145E-18,0.));
#173=CARTESIAN_POINT('',(0.033274,2.03744487974145E-18,0.));
#174=CARTESIAN_POINT('',(0.,0.,0.00635));
#175=CARTESIAN_POINT('',(0.,0.,0.));
#176=MECHANICAL_DESIGN_GEOMETRIC_PRESENTATION_REPRESENTATION('',(#97),#177);
#177=(
GEOMETRIC_REPRESENTATION_CONTEXT(3)
GLOBAL_UNCERTAINTY_ASSIGNED_CONTEXT((#178))
GLOBAL_UNIT_ASSIGNED_CONTEXT((#181,#180,#179))
REPRESENTATION_CONTEXT('DSCP079-E250','TOP_LEVEL_ASSEMBLY_PART')
);
#178=UNCERTAINTY_MEASURE_WITH_UNIT(LENGTH_MEASURE(5.E-6),#181,
'DISTANCE_ACCURACY_VALUE','Maximum Tolerance applied to model');
#179=(
NAMED_UNIT(*)
SI_UNIT($,.STERADIAN.)
SOLID_ANGLE_UNIT()
);
#180=(
NAMED_UNIT(*)
PLANE_ANGLE_UNIT()
SI_UNIT($,.RADIAN.)
);
#181=(
LENGTH_UNIT()
NAMED_UNIT(*)
SI_UNIT($,.METRE.)
);
#182=PRODUCT_DEFINITION_SHAPE('','',#183);
#183=PRODUCT_DEFINITION('','',#185,#184);
#184=PRODUCT_DEFINITION_CONTEXT('',#191,'design');
#185=PRODUCT_DEFINITION_FORMATION_WITH_SPECIFIED_SOURCE('','',#187,
 .NOT_KNOWN.);
#186=PRODUCT_RELATED_PRODUCT_CATEGORY('','',(#187));
#187=PRODUCT('DSCP079-E250','DSCP079-E250','DSCP079-E250',(#189));
#188=PRODUCT_CATEGORY('','');
#189=PRODUCT_CONTEXT('',#191,'mechanical');
#190=APPLICATION_PROTOCOL_DEFINITION('international standard',
'ap242_managed_model_based_3d_engineering',2011,#191);
#191=APPLICATION_CONTEXT('managed model based 3d engineering');
ENDSEC;
END-ISO-10303-21;
