ISO-10303-21;
HEADER;
/* Generated by software containing ST-Developer
 * from STEP Tools, Inc. (www.steptools.com) 
 */
/* OPTION: using custom renumber hook */

FILE_DESCRIPTION(
/* description */ ('STEP AP242',
'CAx-IF Rec.Pracs.---Representation and Presentation of Product Manufa
cturing Information (PMI)---4.0---2014-10-13',
'CAx-IF Rec.Pracs.---3D Tessellated Geometry---0.4---2014-09-14','2;1'),

/* implementation_level */ '2;1');

FILE_NAME(
/* name */ '62976d2b32f8a44f54e11d02',
/* time_stamp */ '2022-06-01T13:44:12+00:00',
/* author */ (''),
/* organization */ (''),
/* preprocessor_version */ 'ST-DEVELOPER v18.102',
/* originating_system */ '  ',
/* authorisation */ '  ');

FILE_SCHEMA (('AP242_MANAGED_MODEL_BASED_3D_ENGINEERING_MIM_LF { 1 0 10303 442 1 1 4 }'));
ENDSEC;

DATA;
#10=SHAPE_REPRESENTATION_RELATIONSHIP('','',#127,#11);
#11=ADVANCED_BREP_SHAPE_REPRESENTATION('',(#125),#211);
#12=PLANE('',#144);
#13=PLANE('',#145);
#14=ORIENTED_EDGE('',*,*,#34,.T.);
#15=ORIENTED_EDGE('',*,*,#35,.F.);
#16=ORIENTED_EDGE('',*,*,#36,.T.);
#17=ORIENTED_EDGE('',*,*,#37,.F.);
#18=ORIENTED_EDGE('',*,*,#38,.T.);
#19=ORIENTED_EDGE('',*,*,#39,.F.);
#20=ORIENTED_EDGE('',*,*,#40,.T.);
#21=ORIENTED_EDGE('',*,*,#41,.F.);
#22=ORIENTED_EDGE('',*,*,#42,.F.);
#23=ORIENTED_EDGE('',*,*,#43,.T.);
#24=ORIENTED_EDGE('',*,*,#40,.F.);
#25=ORIENTED_EDGE('',*,*,#38,.F.);
#26=ORIENTED_EDGE('',*,*,#36,.F.);
#27=ORIENTED_EDGE('',*,*,#34,.F.);
#28=ORIENTED_EDGE('',*,*,#42,.T.);
#29=ORIENTED_EDGE('',*,*,#41,.T.);
#30=ORIENTED_EDGE('',*,*,#39,.T.);
#31=ORIENTED_EDGE('',*,*,#37,.T.);
#32=ORIENTED_EDGE('',*,*,#35,.T.);
#33=ORIENTED_EDGE('',*,*,#43,.F.);
#34=EDGE_CURVE('',#44,#44,#54,.T.);
#35=EDGE_CURVE('',#45,#45,#55,.T.);
#36=EDGE_CURVE('',#46,#46,#56,.T.);
#37=EDGE_CURVE('',#47,#47,#57,.T.);
#38=EDGE_CURVE('',#48,#48,#58,.T.);
#39=EDGE_CURVE('',#49,#49,#59,.T.);
#40=EDGE_CURVE('',#50,#50,#60,.T.);
#41=EDGE_CURVE('',#51,#51,#61,.T.);
#42=EDGE_CURVE('',#52,#52,#62,.T.);
#43=EDGE_CURVE('',#53,#53,#63,.T.);
#44=VERTEX_POINT('',#185);
#45=VERTEX_POINT('',#187);
#46=VERTEX_POINT('',#190);
#47=VERTEX_POINT('',#192);
#48=VERTEX_POINT('',#195);
#49=VERTEX_POINT('',#197);
#50=VERTEX_POINT('',#200);
#51=VERTEX_POINT('',#202);
#52=VERTEX_POINT('',#205);
#53=VERTEX_POINT('',#207);
#54=CIRCLE('',#130,0.030988);
#55=CIRCLE('',#131,0.030988);
#56=CIRCLE('',#133,0.006604);
#57=CIRCLE('',#134,0.006604);
#58=CIRCLE('',#136,0.006604);
#59=CIRCLE('',#137,0.006604);
#60=CIRCLE('',#139,0.006604);
#61=CIRCLE('',#140,0.006604);
#62=CIRCLE('',#142,0.0508);
#63=CIRCLE('',#143,0.0508);
#64=EDGE_LOOP('',(#14));
#65=EDGE_LOOP('',(#15));
#66=EDGE_LOOP('',(#16));
#67=EDGE_LOOP('',(#17));
#68=EDGE_LOOP('',(#18));
#69=EDGE_LOOP('',(#19));
#70=EDGE_LOOP('',(#20));
#71=EDGE_LOOP('',(#21));
#72=EDGE_LOOP('',(#22));
#73=EDGE_LOOP('',(#23));
#74=EDGE_LOOP('',(#24));
#75=EDGE_LOOP('',(#25));
#76=EDGE_LOOP('',(#26));
#77=EDGE_LOOP('',(#27));
#78=EDGE_LOOP('',(#28));
#79=EDGE_LOOP('',(#29));
#80=EDGE_LOOP('',(#30));
#81=EDGE_LOOP('',(#31));
#82=EDGE_LOOP('',(#32));
#83=EDGE_LOOP('',(#33));
#84=FACE_BOUND('',#64,.T.);
#85=FACE_BOUND('',#65,.T.);
#86=FACE_BOUND('',#66,.T.);
#87=FACE_BOUND('',#67,.T.);
#88=FACE_BOUND('',#68,.T.);
#89=FACE_BOUND('',#69,.T.);
#90=FACE_BOUND('',#70,.T.);
#91=FACE_BOUND('',#71,.T.);
#92=FACE_BOUND('',#72,.T.);
#93=FACE_BOUND('',#73,.T.);
#94=FACE_BOUND('',#74,.T.);
#95=FACE_BOUND('',#75,.T.);
#96=FACE_BOUND('',#76,.T.);
#97=FACE_BOUND('',#77,.T.);
#98=FACE_BOUND('',#78,.T.);
#99=FACE_BOUND('',#79,.T.);
#100=FACE_BOUND('',#80,.T.);
#101=FACE_BOUND('',#81,.T.);
#102=FACE_BOUND('',#82,.T.);
#103=FACE_BOUND('',#83,.T.);
#104=CYLINDRICAL_SURFACE('',#129,0.030988);
#105=CYLINDRICAL_SURFACE('',#132,0.006604);
#106=CYLINDRICAL_SURFACE('',#135,0.006604);
#107=CYLINDRICAL_SURFACE('',#138,0.006604);
#108=CYLINDRICAL_SURFACE('',#141,0.0508);
#109=ADVANCED_FACE('',(#84,#85),#104,.F.);
#110=ADVANCED_FACE('',(#86,#87),#105,.F.);
#111=ADVANCED_FACE('',(#88,#89),#106,.F.);
#112=ADVANCED_FACE('',(#90,#91),#107,.F.);
#113=ADVANCED_FACE('',(#92,#93),#108,.T.);
#114=ADVANCED_FACE('',(#94,#95,#96,#97,#98),#12,.T.);
#115=ADVANCED_FACE('',(#99,#100,#101,#102,#103),#13,.F.);
#116=CLOSED_SHELL('',(#109,#110,#111,#112,#113,#114,#115));
#117=STYLED_ITEM('',(#118),#125);
#118=PRESENTATION_STYLE_ASSIGNMENT((#119));
#119=SURFACE_STYLE_USAGE(.BOTH.,#120);
#120=SURFACE_SIDE_STYLE('',(#121));
#121=SURFACE_STYLE_FILL_AREA(#122);
#122=FILL_AREA_STYLE('',(#123));
#123=FILL_AREA_STYLE_COLOUR('',#124);
#124=COLOUR_RGB('',0.498039215686275,0.498039215686275,0.498039215686275);
#125=MANIFOLD_SOLID_BREP('DSCP083-E320',#116);
#126=SHAPE_DEFINITION_REPRESENTATION(#216,#127);
#127=SHAPE_REPRESENTATION('DSCP083-E320',(#128),#211);
#128=AXIS2_PLACEMENT_3D('',#182,#146,#147);
#129=AXIS2_PLACEMENT_3D('',#183,#148,#149);
#130=AXIS2_PLACEMENT_3D('',#184,#150,#151);
#131=AXIS2_PLACEMENT_3D('',#186,#152,#153);
#132=AXIS2_PLACEMENT_3D('',#188,#154,#155);
#133=AXIS2_PLACEMENT_3D('',#189,#156,#157);
#134=AXIS2_PLACEMENT_3D('',#191,#158,#159);
#135=AXIS2_PLACEMENT_3D('',#193,#160,#161);
#136=AXIS2_PLACEMENT_3D('',#194,#162,#163);
#137=AXIS2_PLACEMENT_3D('',#196,#164,#165);
#138=AXIS2_PLACEMENT_3D('',#198,#166,#167);
#139=AXIS2_PLACEMENT_3D('',#199,#168,#169);
#140=AXIS2_PLACEMENT_3D('',#201,#170,#171);
#141=AXIS2_PLACEMENT_3D('',#203,#172,#173);
#142=AXIS2_PLACEMENT_3D('',#204,#174,#175);
#143=AXIS2_PLACEMENT_3D('',#206,#176,#177);
#144=AXIS2_PLACEMENT_3D('',#208,#178,#179);
#145=AXIS2_PLACEMENT_3D('',#209,#180,#181);
#146=DIRECTION('',(0.,0.,1.));
#147=DIRECTION('',(1.,0.,0.));
#148=DIRECTION('',(0.,0.,-1.));
#149=DIRECTION('',(-1.,0.,0.));
#150=DIRECTION('',(0.,0.,1.));
#151=DIRECTION('',(1.,0.,0.));
#152=DIRECTION('',(0.,0.,1.));
#153=DIRECTION('',(1.,0.,0.));
#154=DIRECTION('',(0.,0.,-1.));
#155=DIRECTION('',(-1.,0.,0.));
#156=DIRECTION('',(0.,0.,1.));
#157=DIRECTION('',(1.,0.,0.));
#158=DIRECTION('',(0.,0.,1.));
#159=DIRECTION('',(1.,0.,0.));
#160=DIRECTION('',(0.,0.,-1.));
#161=DIRECTION('',(-1.,0.,0.));
#162=DIRECTION('',(0.,0.,1.));
#163=DIRECTION('',(1.,0.,0.));
#164=DIRECTION('',(0.,0.,1.));
#165=DIRECTION('',(1.,0.,0.));
#166=DIRECTION('',(0.,0.,-1.));
#167=DIRECTION('',(-1.,0.,0.));
#168=DIRECTION('',(0.,0.,1.));
#169=DIRECTION('',(1.,0.,0.));
#170=DIRECTION('',(0.,0.,1.));
#171=DIRECTION('',(1.,0.,0.));
#172=DIRECTION('',(0.,0.,-1.));
#173=DIRECTION('',(-1.,0.,0.));
#174=DIRECTION('',(0.,0.,1.));
#175=DIRECTION('',(1.,0.,0.));
#176=DIRECTION('',(0.,0.,1.));
#177=DIRECTION('',(1.,0.,0.));
#178=DIRECTION('',(0.,0.,1.));
#179=DIRECTION('',(1.,0.,0.));
#180=DIRECTION('',(0.,0.,1.));
#181=DIRECTION('',(1.,0.,0.));
#182=CARTESIAN_POINT('',(0.,0.,0.));
#183=CARTESIAN_POINT('',(0.,1.89746775059891E-18,0.008128));
#184=CARTESIAN_POINT('',(0.,1.89746775059891E-18,0.008128));
#185=CARTESIAN_POINT('',(0.030988,1.89746775059891E-18,0.008128));
#186=CARTESIAN_POINT('',(0.,1.89746775059891E-18,0.));
#187=CARTESIAN_POINT('',(0.030988,1.89746775059891E-18,0.));
#188=CARTESIAN_POINT('',(0.,0.041402,0.008128));
#189=CARTESIAN_POINT('',(0.,0.041402,0.008128));
#190=CARTESIAN_POINT('',(0.006604,0.041402,0.008128));
#191=CARTESIAN_POINT('',(0.,0.041402,0.));
#192=CARTESIAN_POINT('',(0.006604,0.041402,0.));
#193=CARTESIAN_POINT('',(0.035814,-0.020574,0.008128));
#194=CARTESIAN_POINT('',(0.035814,-0.020574,0.008128));
#195=CARTESIAN_POINT('',(0.042418,-0.020574,0.008128));
#196=CARTESIAN_POINT('',(0.035814,-0.020574,0.));
#197=CARTESIAN_POINT('',(0.042418,-0.020574,0.));
#198=CARTESIAN_POINT('',(-0.035814,-0.020574,0.008128));
#199=CARTESIAN_POINT('',(-0.035814,-0.020574,0.008128));
#200=CARTESIAN_POINT('',(-0.02921,-0.020574,0.008128));
#201=CARTESIAN_POINT('',(-0.035814,-0.020574,0.));
#202=CARTESIAN_POINT('',(-0.02921,-0.020574,0.));
#203=CARTESIAN_POINT('',(0.,3.11060286983428E-18,0.008128));
#204=CARTESIAN_POINT('',(0.,3.11060286983428E-18,0.008128));
#205=CARTESIAN_POINT('',(0.0508,3.11060286983428E-18,0.008128));
#206=CARTESIAN_POINT('',(0.,3.11060286983428E-18,0.));
#207=CARTESIAN_POINT('',(0.0508,3.11060286983428E-18,0.));
#208=CARTESIAN_POINT('',(0.,0.,0.008128));
#209=CARTESIAN_POINT('',(0.,0.,0.));
#210=MECHANICAL_DESIGN_GEOMETRIC_PRESENTATION_REPRESENTATION('',(#117),
#211);
#211=(
GEOMETRIC_REPRESENTATION_CONTEXT(3)
GLOBAL_UNCERTAINTY_ASSIGNED_CONTEXT((#212))
GLOBAL_UNIT_ASSIGNED_CONTEXT((#215,#214,#213))
REPRESENTATION_CONTEXT('DSCP083-E320','TOP_LEVEL_ASSEMBLY_PART')
);
#212=UNCERTAINTY_MEASURE_WITH_UNIT(LENGTH_MEASURE(5.E-6),#215,
'DISTANCE_ACCURACY_VALUE','Maximum Tolerance applied to model');
#213=(
NAMED_UNIT(*)
SI_UNIT($,.STERADIAN.)
SOLID_ANGLE_UNIT()
);
#214=(
NAMED_UNIT(*)
PLANE_ANGLE_UNIT()
SI_UNIT($,.RADIAN.)
);
#215=(
LENGTH_UNIT()
NAMED_UNIT(*)
SI_UNIT($,.METRE.)
);
#216=PRODUCT_DEFINITION_SHAPE('','',#217);
#217=PRODUCT_DEFINITION('','',#219,#218);
#218=PRODUCT_DEFINITION_CONTEXT('',#225,'design');
#219=PRODUCT_DEFINITION_FORMATION_WITH_SPECIFIED_SOURCE('','',#221,
 .NOT_KNOWN.);
#220=PRODUCT_RELATED_PRODUCT_CATEGORY('','',(#221));
#221=PRODUCT('DSCP083-E320','DSCP083-E320','DSCP083-E320',(#223));
#222=PRODUCT_CATEGORY('','');
#223=PRODUCT_CONTEXT('',#225,'mechanical');
#224=APPLICATION_PROTOCOL_DEFINITION('international standard',
'ap242_managed_model_based_3d_engineering',2011,#225);
#225=APPLICATION_CONTEXT('managed model based 3d engineering');
ENDSEC;
END-ISO-10303-21;
