ISO-10303-21;
HEADER;
/* Generated by software containing ST-Developer
 * from STEP Tools, Inc. (www.steptools.com) 
 */
/* OPTION: using custom renumber hook */

FILE_DESCRIPTION(
/* description */ ('STEP AP242',
'CAx-IF Rec.Pracs.---Representation and Presentation of Product Manufa
cturing Information (PMI)---4.0---2014-10-13',
'CAx-IF Rec.Pracs.---3D Tessellated Geometry---0.4---2014-09-14','2;1'),

/* implementation_level */ '2;1');

FILE_NAME(
/* name */ '62bdbb8478859f42f54c72bc',
/* time_stamp */ '2022-06-30T15:04:36+00:00',
/* author */ (''),
/* organization */ (''),
/* preprocessor_version */ 'ST-DEVELOPER v18.102',
/* originating_system */ '  ',
/* authorisation */ '  ');

FILE_SCHEMA (('AP242_MANAGED_MODEL_BASED_3D_ENGINEERING_MIM_LF { 1 0 10303 442 1 1 4 }'));
ENDSEC;

DATA;
#10=SHAPE_REPRESENTATION_RELATIONSHIP('','',#215,#11);
#11=ADVANCED_BREP_SHAPE_REPRESENTATION('',(#213),#347);
#12=CIRCLE('',#221,0.0045);
#13=CIRCLE('',#222,0.0045);
#14=CIRCLE('',#224,0.0045);
#15=CIRCLE('',#225,0.0045);
#16=CIRCLE('',#227,0.0045);
#17=CIRCLE('',#228,0.0045);
#18=CIRCLE('',#230,0.0045);
#19=CIRCLE('',#231,0.0045);
#20=CIRCLE('',#233,0.0045);
#21=CIRCLE('',#234,0.0045);
#22=CYLINDRICAL_SURFACE('',#220,0.0045);
#23=CYLINDRICAL_SURFACE('',#223,0.0045);
#24=CYLINDRICAL_SURFACE('',#226,0.0045);
#25=CYLINDRICAL_SURFACE('',#229,0.0045);
#26=CYLINDRICAL_SURFACE('',#232,0.0045);
#27=ORIENTED_EDGE('',*,*,#71,.F.);
#28=ORIENTED_EDGE('',*,*,#72,.F.);
#29=ORIENTED_EDGE('',*,*,#73,.T.);
#30=ORIENTED_EDGE('',*,*,#74,.T.);
#31=ORIENTED_EDGE('',*,*,#75,.T.);
#32=ORIENTED_EDGE('',*,*,#76,.F.);
#33=ORIENTED_EDGE('',*,*,#77,.F.);
#34=ORIENTED_EDGE('',*,*,#72,.T.);
#35=ORIENTED_EDGE('',*,*,#78,.T.);
#36=ORIENTED_EDGE('',*,*,#79,.F.);
#37=ORIENTED_EDGE('',*,*,#80,.F.);
#38=ORIENTED_EDGE('',*,*,#76,.T.);
#39=ORIENTED_EDGE('',*,*,#81,.T.);
#40=ORIENTED_EDGE('',*,*,#82,.F.);
#41=ORIENTED_EDGE('',*,*,#83,.T.);
#42=ORIENTED_EDGE('',*,*,#84,.F.);
#43=ORIENTED_EDGE('',*,*,#85,.T.);
#44=ORIENTED_EDGE('',*,*,#86,.F.);
#45=ORIENTED_EDGE('',*,*,#87,.T.);
#46=ORIENTED_EDGE('',*,*,#88,.F.);
#47=ORIENTED_EDGE('',*,*,#89,.T.);
#48=ORIENTED_EDGE('',*,*,#90,.F.);
#49=ORIENTED_EDGE('',*,*,#91,.F.);
#50=ORIENTED_EDGE('',*,*,#74,.F.);
#51=ORIENTED_EDGE('',*,*,#92,.T.);
#52=ORIENTED_EDGE('',*,*,#79,.T.);
#53=ORIENTED_EDGE('',*,*,#89,.F.);
#54=ORIENTED_EDGE('',*,*,#87,.F.);
#55=ORIENTED_EDGE('',*,*,#85,.F.);
#56=ORIENTED_EDGE('',*,*,#83,.F.);
#57=ORIENTED_EDGE('',*,*,#81,.F.);
#58=ORIENTED_EDGE('',*,*,#73,.F.);
#59=ORIENTED_EDGE('',*,*,#77,.T.);
#60=ORIENTED_EDGE('',*,*,#80,.T.);
#61=ORIENTED_EDGE('',*,*,#92,.F.);
#62=ORIENTED_EDGE('',*,*,#90,.T.);
#63=ORIENTED_EDGE('',*,*,#88,.T.);
#64=ORIENTED_EDGE('',*,*,#86,.T.);
#65=ORIENTED_EDGE('',*,*,#84,.T.);
#66=ORIENTED_EDGE('',*,*,#82,.T.);
#67=ORIENTED_EDGE('',*,*,#71,.T.);
#68=ORIENTED_EDGE('',*,*,#91,.T.);
#69=ORIENTED_EDGE('',*,*,#78,.F.);
#70=ORIENTED_EDGE('',*,*,#75,.F.);
#71=EDGE_CURVE('',#93,#94,#111,.T.);
#72=EDGE_CURVE('',#95,#93,#112,.T.);
#73=EDGE_CURVE('',#95,#96,#113,.T.);
#74=EDGE_CURVE('',#96,#94,#114,.T.);
#75=EDGE_CURVE('',#93,#97,#115,.T.);
#76=EDGE_CURVE('',#98,#97,#116,.T.);
#77=EDGE_CURVE('',#95,#98,#117,.T.);
#78=EDGE_CURVE('',#97,#99,#118,.T.);
#79=EDGE_CURVE('',#100,#99,#119,.T.);
#80=EDGE_CURVE('',#98,#100,#120,.T.);
#81=EDGE_CURVE('',#101,#101,#12,.T.);
#82=EDGE_CURVE('',#102,#102,#13,.T.);
#83=EDGE_CURVE('',#103,#103,#14,.T.);
#84=EDGE_CURVE('',#104,#104,#15,.T.);
#85=EDGE_CURVE('',#105,#105,#16,.T.);
#86=EDGE_CURVE('',#106,#106,#17,.T.);
#87=EDGE_CURVE('',#107,#107,#18,.T.);
#88=EDGE_CURVE('',#108,#108,#19,.T.);
#89=EDGE_CURVE('',#109,#109,#20,.T.);
#90=EDGE_CURVE('',#110,#110,#21,.T.);
#91=EDGE_CURVE('',#94,#99,#121,.T.);
#92=EDGE_CURVE('',#96,#100,#122,.T.);
#93=VERTEX_POINT('',#297);
#94=VERTEX_POINT('',#298);
#95=VERTEX_POINT('',#300);
#96=VERTEX_POINT('',#302);
#97=VERTEX_POINT('',#306);
#98=VERTEX_POINT('',#308);
#99=VERTEX_POINT('',#312);
#100=VERTEX_POINT('',#314);
#101=VERTEX_POINT('',#318);
#102=VERTEX_POINT('',#320);
#103=VERTEX_POINT('',#323);
#104=VERTEX_POINT('',#325);
#105=VERTEX_POINT('',#328);
#106=VERTEX_POINT('',#330);
#107=VERTEX_POINT('',#333);
#108=VERTEX_POINT('',#335);
#109=VERTEX_POINT('',#338);
#110=VERTEX_POINT('',#340);
#111=LINE('',#296,#123);
#112=LINE('',#299,#124);
#113=LINE('',#301,#125);
#114=LINE('',#303,#126);
#115=LINE('',#305,#127);
#116=LINE('',#307,#128);
#117=LINE('',#309,#129);
#118=LINE('',#311,#130);
#119=LINE('',#313,#131);
#120=LINE('',#315,#132);
#121=LINE('',#342,#133);
#122=LINE('',#343,#134);
#123=VECTOR('',#242,1.);
#124=VECTOR('',#243,1.);
#125=VECTOR('',#244,1.);
#126=VECTOR('',#245,1.);
#127=VECTOR('',#248,1.);
#128=VECTOR('',#249,1.);
#129=VECTOR('',#250,1.);
#130=VECTOR('',#253,1.);
#131=VECTOR('',#254,1.);
#132=VECTOR('',#255,1.);
#133=VECTOR('',#288,1.);
#134=VECTOR('',#289,1.);
#135=EDGE_LOOP('',(#27,#28,#29,#30));
#136=EDGE_LOOP('',(#31,#32,#33,#34));
#137=EDGE_LOOP('',(#35,#36,#37,#38));
#138=EDGE_LOOP('',(#39));
#139=EDGE_LOOP('',(#40));
#140=EDGE_LOOP('',(#41));
#141=EDGE_LOOP('',(#42));
#142=EDGE_LOOP('',(#43));
#143=EDGE_LOOP('',(#44));
#144=EDGE_LOOP('',(#45));
#145=EDGE_LOOP('',(#46));
#146=EDGE_LOOP('',(#47));
#147=EDGE_LOOP('',(#48));
#148=EDGE_LOOP('',(#49,#50,#51,#52));
#149=EDGE_LOOP('',(#53));
#150=EDGE_LOOP('',(#54));
#151=EDGE_LOOP('',(#55));
#152=EDGE_LOOP('',(#56));
#153=EDGE_LOOP('',(#57));
#154=EDGE_LOOP('',(#58,#59,#60,#61));
#155=EDGE_LOOP('',(#62));
#156=EDGE_LOOP('',(#63));
#157=EDGE_LOOP('',(#64));
#158=EDGE_LOOP('',(#65));
#159=EDGE_LOOP('',(#66));
#160=EDGE_LOOP('',(#67,#68,#69,#70));
#161=FACE_BOUND('',#135,.T.);
#162=FACE_BOUND('',#136,.T.);
#163=FACE_BOUND('',#137,.T.);
#164=FACE_BOUND('',#138,.T.);
#165=FACE_BOUND('',#139,.T.);
#166=FACE_BOUND('',#140,.T.);
#167=FACE_BOUND('',#141,.T.);
#168=FACE_BOUND('',#142,.T.);
#169=FACE_BOUND('',#143,.T.);
#170=FACE_BOUND('',#144,.T.);
#171=FACE_BOUND('',#145,.T.);
#172=FACE_BOUND('',#146,.T.);
#173=FACE_BOUND('',#147,.T.);
#174=FACE_BOUND('',#148,.T.);
#175=FACE_BOUND('',#149,.T.);
#176=FACE_BOUND('',#150,.T.);
#177=FACE_BOUND('',#151,.T.);
#178=FACE_BOUND('',#152,.T.);
#179=FACE_BOUND('',#153,.T.);
#180=FACE_BOUND('',#154,.T.);
#181=FACE_BOUND('',#155,.T.);
#182=FACE_BOUND('',#156,.T.);
#183=FACE_BOUND('',#157,.T.);
#184=FACE_BOUND('',#158,.T.);
#185=FACE_BOUND('',#159,.T.);
#186=FACE_BOUND('',#160,.T.);
#187=PLANE('',#217);
#188=PLANE('',#218);
#189=PLANE('',#219);
#190=PLANE('',#235);
#191=PLANE('',#236);
#192=PLANE('',#237);
#193=ADVANCED_FACE('',(#161),#187,.T.);
#194=ADVANCED_FACE('',(#162),#188,.F.);
#195=ADVANCED_FACE('',(#163),#189,.F.);
#196=ADVANCED_FACE('',(#164,#165),#22,.F.);
#197=ADVANCED_FACE('',(#166,#167),#23,.F.);
#198=ADVANCED_FACE('',(#168,#169),#24,.F.);
#199=ADVANCED_FACE('',(#170,#171),#25,.F.);
#200=ADVANCED_FACE('',(#172,#173),#26,.F.);
#201=ADVANCED_FACE('',(#174),#190,.T.);
#202=ADVANCED_FACE('',(#175,#176,#177,#178,#179,#180),#191,.T.);
#203=ADVANCED_FACE('',(#181,#182,#183,#184,#185,#186),#192,.F.);
#204=CLOSED_SHELL('',(#193,#194,#195,#196,#197,#198,#199,#200,#201,#202,
#203));
#205=STYLED_ITEM('',(#206),#213);
#206=PRESENTATION_STYLE_ASSIGNMENT((#207));
#207=SURFACE_STYLE_USAGE(.BOTH.,#208);
#208=SURFACE_SIDE_STYLE('',(#209));
#209=SURFACE_STYLE_FILL_AREA(#210);
#210=FILL_AREA_STYLE('',(#211));
#211=FILL_AREA_STYLE_COLOUR('',#212);
#212=COLOUR_RGB('',0.4,0.4,0.4);
#213=MANIFOLD_SOLID_BREP('DSCP094-M680',#204);
#214=SHAPE_DEFINITION_REPRESENTATION(#352,#215);
#215=SHAPE_REPRESENTATION('DSCP094-M680',(#216),#347);
#216=AXIS2_PLACEMENT_3D('',#294,#238,#239);
#217=AXIS2_PLACEMENT_3D('',#295,#240,#241);
#218=AXIS2_PLACEMENT_3D('',#304,#246,#247);
#219=AXIS2_PLACEMENT_3D('',#310,#251,#252);
#220=AXIS2_PLACEMENT_3D('',#316,#256,#257);
#221=AXIS2_PLACEMENT_3D('',#317,#258,#259);
#222=AXIS2_PLACEMENT_3D('',#319,#260,#261);
#223=AXIS2_PLACEMENT_3D('',#321,#262,#263);
#224=AXIS2_PLACEMENT_3D('',#322,#264,#265);
#225=AXIS2_PLACEMENT_3D('',#324,#266,#267);
#226=AXIS2_PLACEMENT_3D('',#326,#268,#269);
#227=AXIS2_PLACEMENT_3D('',#327,#270,#271);
#228=AXIS2_PLACEMENT_3D('',#329,#272,#273);
#229=AXIS2_PLACEMENT_3D('',#331,#274,#275);
#230=AXIS2_PLACEMENT_3D('',#332,#276,#277);
#231=AXIS2_PLACEMENT_3D('',#334,#278,#279);
#232=AXIS2_PLACEMENT_3D('',#336,#280,#281);
#233=AXIS2_PLACEMENT_3D('',#337,#282,#283);
#234=AXIS2_PLACEMENT_3D('',#339,#284,#285);
#235=AXIS2_PLACEMENT_3D('',#341,#286,#287);
#236=AXIS2_PLACEMENT_3D('',#344,#290,#291);
#237=AXIS2_PLACEMENT_3D('',#345,#292,#293);
#238=DIRECTION('',(0.,0.,1.));
#239=DIRECTION('',(1.,0.,0.));
#240=DIRECTION('',(1.3695185336659E-16,-1.,0.));
#241=DIRECTION('',(1.,1.3695185336659E-16,0.));
#242=DIRECTION('',(-1.,-1.3695185336659E-16,0.));
#243=DIRECTION('',(0.,0.,-1.));
#244=DIRECTION('',(-1.,-1.3695185336659E-16,0.));
#245=DIRECTION('',(0.,0.,-1.));
#246=DIRECTION('',(-1.,0.,0.));
#247=DIRECTION('',(0.,0.,1.));
#248=DIRECTION('',(0.,1.,0.));
#249=DIRECTION('',(0.,0.,-1.));
#250=DIRECTION('',(0.,1.,0.));
#251=DIRECTION('',(1.3695185336659E-16,-1.,0.));
#252=DIRECTION('',(1.,1.3695185336659E-16,0.));
#253=DIRECTION('',(-1.,-1.3695185336659E-16,0.));
#254=DIRECTION('',(0.,0.,-1.));
#255=DIRECTION('',(-1.,-1.3695185336659E-16,0.));
#256=DIRECTION('',(0.,0.,-1.));
#257=DIRECTION('',(-1.,0.,0.));
#258=DIRECTION('',(0.,0.,1.));
#259=DIRECTION('',(1.,0.,0.));
#260=DIRECTION('',(0.,0.,1.));
#261=DIRECTION('',(1.,0.,0.));
#262=DIRECTION('',(0.,0.,-1.));
#263=DIRECTION('',(-1.,0.,0.));
#264=DIRECTION('',(0.,0.,1.));
#265=DIRECTION('',(1.,0.,0.));
#266=DIRECTION('',(0.,0.,1.));
#267=DIRECTION('',(1.,0.,0.));
#268=DIRECTION('',(0.,0.,-1.));
#269=DIRECTION('',(-1.,0.,0.));
#270=DIRECTION('',(0.,0.,1.));
#271=DIRECTION('',(1.,0.,0.));
#272=DIRECTION('',(0.,0.,1.));
#273=DIRECTION('',(1.,0.,0.));
#274=DIRECTION('',(0.,0.,-1.));
#275=DIRECTION('',(-1.,0.,0.));
#276=DIRECTION('',(0.,0.,1.));
#277=DIRECTION('',(1.,0.,0.));
#278=DIRECTION('',(0.,0.,1.));
#279=DIRECTION('',(1.,0.,0.));
#280=DIRECTION('',(0.,0.,-1.));
#281=DIRECTION('',(-1.,0.,0.));
#282=DIRECTION('',(0.,0.,1.));
#283=DIRECTION('',(1.,0.,0.));
#284=DIRECTION('',(0.,0.,1.));
#285=DIRECTION('',(1.,0.,0.));
#286=DIRECTION('',(-1.,0.,0.));
#287=DIRECTION('',(0.,0.,1.));
#288=DIRECTION('',(0.,1.,0.));
#289=DIRECTION('',(0.,1.,0.));
#290=DIRECTION('',(0.,0.,1.));
#291=DIRECTION('',(1.,0.,0.));
#292=DIRECTION('',(0.,0.,1.));
#293=DIRECTION('',(1.,0.,0.));
#294=CARTESIAN_POINT('',(0.,0.,0.));
#295=CARTESIAN_POINT('',(0.,-0.01,0.0068));
#296=CARTESIAN_POINT('',(0.,-0.01,0.));
#297=CARTESIAN_POINT('',(0.038,-0.01,0.));
#298=CARTESIAN_POINT('',(-0.038,-0.01,0.));
#299=CARTESIAN_POINT('',(0.038,-0.01,0.0068));
#300=CARTESIAN_POINT('',(0.038,-0.01,0.0068));
#301=CARTESIAN_POINT('',(0.,-0.01,0.0068));
#302=CARTESIAN_POINT('',(-0.038,-0.01,0.0068));
#303=CARTESIAN_POINT('',(-0.038,-0.01,0.0068));
#304=CARTESIAN_POINT('',(0.038,5.20417042793042E-18,0.0068));
#305=CARTESIAN_POINT('',(0.038,5.20417042793042E-18,0.));
#306=CARTESIAN_POINT('',(0.038,0.01,0.));
#307=CARTESIAN_POINT('',(0.038,0.01,0.0068));
#308=CARTESIAN_POINT('',(0.038,0.01,0.0068));
#309=CARTESIAN_POINT('',(0.038,5.20417042793042E-18,0.0068));
#310=CARTESIAN_POINT('',(0.,0.01,0.0068));
#311=CARTESIAN_POINT('',(0.,0.01,0.));
#312=CARTESIAN_POINT('',(-0.038,0.01,0.));
#313=CARTESIAN_POINT('',(-0.038,0.01,0.0068));
#314=CARTESIAN_POINT('',(-0.038,0.01,0.0068));
#315=CARTESIAN_POINT('',(0.,0.01,0.0068));
#316=CARTESIAN_POINT('',(-0.03,-3.95284294288531E-18,0.0068));
#317=CARTESIAN_POINT('',(-0.03,-3.95284294288531E-18,0.0068));
#318=CARTESIAN_POINT('',(-0.0255,-3.95284294288531E-18,0.0068));
#319=CARTESIAN_POINT('',(-0.03,-3.95284294288531E-18,0.));
#320=CARTESIAN_POINT('',(-0.0255,-3.95284294288531E-18,0.));
#321=CARTESIAN_POINT('',(-0.015,-3.95284294288531E-18,0.0068));
#322=CARTESIAN_POINT('',(-0.015,-3.95284294288531E-18,0.0068));
#323=CARTESIAN_POINT('',(-0.0105,-3.95284294288531E-18,0.0068));
#324=CARTESIAN_POINT('',(-0.015,-3.95284294288531E-18,0.));
#325=CARTESIAN_POINT('',(-0.0105,-3.95284294288531E-18,0.));
#326=CARTESIAN_POINT('',(-3.46944695195361E-17,-3.95284294288531E-18,0.0068));
#327=CARTESIAN_POINT('',(-3.46944695195361E-17,-3.95284294288531E-18,0.0068));
#328=CARTESIAN_POINT('',(0.00449999999999996,-3.95284294288531E-18,0.0068));
#329=CARTESIAN_POINT('',(-3.46944695195361E-17,-3.95284294288531E-18,0.));
#330=CARTESIAN_POINT('',(0.00449999999999996,-3.95284294288531E-18,0.));
#331=CARTESIAN_POINT('',(0.015,-3.95284294288531E-18,0.0068));
#332=CARTESIAN_POINT('',(0.015,-3.95284294288531E-18,0.0068));
#333=CARTESIAN_POINT('',(0.0195,-3.95284294288531E-18,0.0068));
#334=CARTESIAN_POINT('',(0.015,-3.95284294288531E-18,0.));
#335=CARTESIAN_POINT('',(0.0195,-3.95284294288531E-18,0.));
#336=CARTESIAN_POINT('',(0.03,-3.95284294288531E-18,0.0068));
#337=CARTESIAN_POINT('',(0.03,-3.95284294288531E-18,0.0068));
#338=CARTESIAN_POINT('',(0.0345,-3.95284294288531E-18,0.0068));
#339=CARTESIAN_POINT('',(0.03,-3.95284294288531E-18,0.));
#340=CARTESIAN_POINT('',(0.0345,-3.95284294288531E-18,0.));
#341=CARTESIAN_POINT('',(-0.038,-5.20417042793042E-18,0.0068));
#342=CARTESIAN_POINT('',(-0.038,-5.20417042793042E-18,0.));
#343=CARTESIAN_POINT('',(-0.038,-5.20417042793042E-18,0.0068));
#344=CARTESIAN_POINT('',(0.,0.,0.0068));
#345=CARTESIAN_POINT('',(0.,0.,0.));
#346=MECHANICAL_DESIGN_GEOMETRIC_PRESENTATION_REPRESENTATION('',(#205),
#347);
#347=(
GEOMETRIC_REPRESENTATION_CONTEXT(3)
GLOBAL_UNCERTAINTY_ASSIGNED_CONTEXT((#348))
GLOBAL_UNIT_ASSIGNED_CONTEXT((#351,#350,#349))
REPRESENTATION_CONTEXT('DSCP094-M680','TOP_LEVEL_ASSEMBLY_PART')
);
#348=UNCERTAINTY_MEASURE_WITH_UNIT(LENGTH_MEASURE(5.E-6),#351,
'DISTANCE_ACCURACY_VALUE','Maximum Tolerance applied to model');
#349=(
NAMED_UNIT(*)
SI_UNIT($,.STERADIAN.)
SOLID_ANGLE_UNIT()
);
#350=(
NAMED_UNIT(*)
PLANE_ANGLE_UNIT()
SI_UNIT($,.RADIAN.)
);
#351=(
LENGTH_UNIT()
NAMED_UNIT(*)
SI_UNIT($,.METRE.)
);
#352=PRODUCT_DEFINITION_SHAPE('','',#353);
#353=PRODUCT_DEFINITION('','',#355,#354);
#354=PRODUCT_DEFINITION_CONTEXT('',#361,'design');
#355=PRODUCT_DEFINITION_FORMATION_WITH_SPECIFIED_SOURCE('','',#357,
 .NOT_KNOWN.);
#356=PRODUCT_RELATED_PRODUCT_CATEGORY('','',(#357));
#357=PRODUCT('DSCP094-M680','DSCP094-M680','DSCP094-M680',(#359));
#358=PRODUCT_CATEGORY('','');
#359=PRODUCT_CONTEXT('',#361,'mechanical');
#360=APPLICATION_PROTOCOL_DEFINITION('international standard',
'ap242_managed_model_based_3d_engineering',2011,#361);
#361=APPLICATION_CONTEXT('managed model based 3d engineering');
ENDSEC;
END-ISO-10303-21;
